  0
SECTION
  2
HEADER
  9
$ACADVER
  1
AC1015
  9
$ACADMAINTVER
 70
    20
  9
$DWGCODEPAGE
  3
ANSI_1252
  9
$INSBASE
 10
0.0
 20
0.0
 30
0.0
  9
$EXTMIN
 10
-0.0023255472729886
 20
-0.0013686187299413
 30
-0.0015258207003583
  9
$EXTMAX
 10
76.21167316705506
 20
44.85168912585542
 30
0.0000000349246037
  9
$LIMMIN
 10
0.0
 20
0.0
  9
$LIMMAX
 10
12.0
 20
9.0
  9
$ORTHOMODE
 70
     0
  9
$REGENMODE
 70
     1
  9
$FILLMODE
 70
     1
  9
$QTEXTMODE
 70
     0
  9
$MIRRTEXT
 70
     1
  9
$LTSCALE
 40
0.5
  9
$ATTMODE
 70
     1
  9
$TEXTSIZE
 40
0.25
  9
$TRACEWID
 40
0.05
  9
$TEXTSTYLE
  7
STANDARD
  9
$CLAYER
  8
0
  9
$CELTYPE
  6
BYLAYER
  9
$CECOLOR
 62
   256
  9
$CELTSCALE
 40
1.0
  9
$DISPSILH
 70
     0
  9
$DIMSCALE
 40
1.0
  9
$DIMASZ
 40
0.2
  9
$DIMEXO
 40
0.125
  9
$DIMDLI
 40
0.375
  9
$DIMRND
 40
0.0
  9
$DIMDLE
 40
0.0
  9
$DIMEXE
 40
0.125
  9
$DIMTP
 40
0.0
  9
$DIMTM
 40
0.0
  9
$DIMTXT
 40
0.25
  9
$DIMCEN
 40
0.0
  9
$DIMTSZ
 40
0.0
  9
$DIMTOL
 70
     0
  9
$DIMLIM
 70
     0
  9
$DIMTIH
 70
     0
  9
$DIMTOH
 70
     0
  9
$DIMSE1
 70
     0
  9
$DIMSE2
 70
     0
  9
$DIMTAD
 70
     1
  9
$DIMZIN
 70
     3
  9
$DIMBLK
  1

  9
$DIMASO
 70
     1
  9
$DIMSHO
 70
     1
  9
$DIMPOST
  1

  9
$DIMAPOST
  1

  9
$DIMALT
 70
     0
  9
$DIMALTD
 70
     2
  9
$DIMALTF
 40
25.4
  9
$DIMLFAC
 40
1.0
  9
$DIMTOFL
 70
     0
  9
$DIMTVP
 40
0.0
  9
$DIMTIX
 70
     0
  9
$DIMSOXD
 70
     0
  9
$DIMSAH
 70
     0
  9
$DIMBLK1
  1

  9
$DIMBLK2
  1

  9
$DIMSTYLE
  2
STANDARD
  9
$DIMCLRD
 70
     0
  9
$DIMCLRE
 70
     0
  9
$DIMCLRT
 70
     0
  9
$DIMTFAC
 40
1.0
  9
$DIMGAP
 40
0.125
  9
$DIMJUST
 70
     0
  9
$DIMSD1
 70
     0
  9
$DIMSD2
 70
     0
  9
$DIMTOLJ
 70
     1
  9
$DIMTZIN
 70
     3
  9
$DIMALTZ
 70
     3
  9
$DIMALTTZ
 70
     3
  9
$DIMUPT
 70
     0
  9
$DIMDEC
 70
     5
  9
$DIMTDEC
 70
     5
  9
$DIMALTU
 70
     4
  9
$DIMALTTD
 70
     2
  9
$DIMTXSTY
  7
STANDARD
  9
$DIMAUNIT
 70
     0
  9
$DIMADEC
 70
     0
  9
$DIMALTRND
 40
0.0
  9
$DIMAZIN
 70
     0
  9
$DIMDSEP
 70
    46
  9
$DIMATFIT
 70
     0
  9
$DIMFRAC
 70
     2
  9
$DIMLDRBLK
  1

  9
$DIMLUNIT
 70
     4
  9
$DIMLWD
 70
    -2
  9
$DIMLWE
 70
    -2
  9
$DIMTMOVE
 70
     0
  9
$LUNITS
 70
     2
  9
$LUPREC
 70
     5
  9
$SKETCHINC
 40
0.1
  9
$FILLETRAD
 40
0.0
  9
$AUNITS
 70
     0
  9
$AUPREC
 70
     0
  9
$MENU
  1
ACAD
  9
$ELEVATION
 40
0.0
  9
$PELEVATION
 40
0.0
  9
$THICKNESS
 40
0.0
  9
$LIMCHECK
 70
     0
  9
$CHAMFERA
 40
0.0
  9
$CHAMFERB
 40
0.0
  9
$CHAMFERC
 40
0.0
  9
$CHAMFERD
 40
0.0
  9
$SKPOLY
 70
     0
  9
$TDCREATE
 40
2450777.579237616
  9
$TDUCREATE
 40
2450777.745904282
  9
$TDUPDATE
 40
2457828.326673808
  9
$TDUUPDATE
 40
2457828.493340475
  9
$TDINDWG
 40
0.4591534606
  9
$TDUSRTIMER
 40
0.4591534606
  9
$USRTIMER
 70
     1
  9
$ANGBASE
 50
0.0
  9
$ANGDIR
 70
     0
  9
$PDMODE
 70
     0
  9
$PDSIZE
 40
0.0
  9
$PLINEWID
 40
0.0
  9
$SPLFRAME
 70
     0
  9
$SPLINETYPE
 70
     6
  9
$SPLINESEGS
 70
     8
  9
$HANDSEED
  5
6B6C
  9
$SURFTAB1
 70
     6
  9
$SURFTAB2
 70
     6
  9
$SURFTYPE
 70
     6
  9
$SURFU
 70
     6
  9
$SURFV
 70
     6
  9
$UCSBASE
  2

  9
$UCSNAME
  2

  9
$UCSORG
 10
0.0
 20
0.0
 30
0.0
  9
$UCSXDIR
 10
1.0
 20
0.0
 30
0.0
  9
$UCSYDIR
 10
0.0
 20
1.0
 30
0.0
  9
$UCSORTHOREF
  2

  9
$UCSORTHOVIEW
 70
     0
  9
$UCSORGTOP
 10
0.0
 20
0.0
 30
0.0
  9
$UCSORGBOTTOM
 10
0.0
 20
0.0
 30
0.0
  9
$UCSORGLEFT
 10
0.0
 20
0.0
 30
0.0
  9
$UCSORGRIGHT
 10
0.0
 20
0.0
 30
0.0
  9
$UCSORGFRONT
 10
0.0
 20
0.0
 30
0.0
  9
$UCSORGBACK
 10
0.0
 20
0.0
 30
0.0
  9
$PUCSBASE
  2

  9
$PUCSNAME
  2

  9
$PUCSORG
 10
0.0
 20
0.0
 30
0.0
  9
$PUCSXDIR
 10
1.0
 20
0.0
 30
0.0
  9
$PUCSYDIR
 10
0.0
 20
1.0
 30
0.0
  9
$PUCSORTHOREF
  2

  9
$PUCSORTHOVIEW
 70
     0
  9
$PUCSORGTOP
 10
0.0
 20
0.0
 30
0.0
  9
$PUCSORGBOTTOM
 10
0.0
 20
0.0
 30
0.0
  9
$PUCSORGLEFT
 10
0.0
 20
0.0
 30
0.0
  9
$PUCSORGRIGHT
 10
0.0
 20
0.0
 30
0.0
  9
$PUCSORGFRONT
 10
0.0
 20
0.0
 30
0.0
  9
$PUCSORGBACK
 10
0.0
 20
0.0
 30
0.0
  9
$USERI1
 70
     0
  9
$USERI2
 70
     0
  9
$USERI3
 70
     0
  9
$USERI4
 70
     0
  9
$USERI5
 70
     0
  9
$USERR1
 40
0.0
  9
$USERR2
 40
0.0
  9
$USERR3
 40
0.0
  9
$USERR4
 40
0.0
  9
$USERR5
 40
0.0
  9
$WORLDVIEW
 70
     1
  9
$SHADEDGE
 70
     3
  9
$SHADEDIF
 70
    70
  9
$TILEMODE
 70
     1
  9
$MAXACTVP
 70
    16
  9
$PINSBASE
 10
0.0
 20
0.0
 30
0.0
  9
$PLIMCHECK
 70
     0
  9
$PEXTMIN
 10
1.000000000000000E+20
 20
1.000000000000000E+20
 30
1.000000000000000E+20
  9
$PEXTMAX
 10
-1.000000000000000E+20
 20
-1.000000000000000E+20
 30
-1.000000000000000E+20
  9
$PLIMMIN
 10
0.0
 20
0.0
  9
$PLIMMAX
 10
12.0
 20
9.0
  9
$UNITMODE
 70
     0
  9
$VISRETAIN
 70
     0
  9
$PLINEGEN
 70
     0
  9
$PSLTSCALE
 70
     1
  9
$TREEDEPTH
 70
  3020
  9
$CMLSTYLE
  2
STANDARD
  9
$CMLJUST
 70
     0
  9
$CMLSCALE
 40
1.0
  9
$PROXYGRAPHICS
 70
     1
  9
$MEASUREMENT
 70
     0
  9
$CELWEIGHT
370
    -1
  9
$ENDCAPS
280
     0
  9
$JOINSTYLE
280
     0
  9
$LWDISPLAY
290
     0
  9
$INSUNITS
 70
     0
  9
$HYPERLINKBASE
  1

  9
$STYLESHEET
  1
Default R14 pen assignments.ctb
  9
$XEDIT
290
     1
  9
$CEPSNTYPE
380
     0
  9
$PSTYLEMODE
290
     1
  9
$FINGERPRINTGUID
  2
{D273F080-F550-11D5-8103-00A0C992F75F}
  9
$VERSIONGUID
  2
{D7FF457B-DB24-4609-B573-3D3F741FBB3E}
  9
$EXTNAMES
290
     1
  9
$PSVPSCALE
 40
0.0
  9
$OLESTARTUP
290
     0
  0
ENDSEC
  0
SECTION
  2
CLASSES
  0
CLASS
  1
DICTIONARYVAR
  2
AcDbDictionaryVar
  3
ObjectDBX Classes
 90
        0
280
     0
281
     0
  0
CLASS
  1
ACDBDICTIONARYWDFLT
  2
AcDbDictionaryWithDefault
  3
ObjectDBX Classes
 90
        0
280
     0
281
     0
  0
CLASS
  1
ACDBPLACEHOLDER
  2
AcDbPlaceHolder
  3
ObjectDBX Classes
 90
        0
280
     0
281
     0
  0
CLASS
  1
LAYOUT
  2
AcDbLayout
  3
ObjectDBX Classes
 90
        0
280
     0
281
     0
  0
CLASS
  1
MATERIAL
  2
AcDbMaterial
  3
ObjectDBX Classes
 90
     1153
280
     0
281
     0
  0
CLASS
  1
VISUALSTYLE
  2
AcDbVisualStyle
  3
ObjectDBX Classes
 90
     4095
280
     0
281
     0
  0
CLASS
  1
TABLESTYLE
  2
AcDbTableStyle
  3
ObjectDBX Classes
 90
     4095
280
     0
281
     0
  0
CLASS
  1
SCALE
  2
AcDbScale
  3
ObjectDBX Classes
 90
     1153
280
     0
281
     0
  0
CLASS
  1
MLEADERSTYLE
  2
AcDbMLeaderStyle
  3
ACDB_MLEADERSTYLE_CLASS
 90
     4095
280
     0
281
     0
  0
CLASS
  1
SORTENTSTABLE
  2
AcDbSortentsTable
  3
ObjectDBX Classes
 90
        0
280
     0
281
     0
  0
CLASS
  1
CELLSTYLEMAP
  2
AcDbCellStyleMap
  3
ObjectDBX Classes
 90
     1152
280
     0
281
     0
  0
CLASS
  1
EXACXREFPANELOBJECT
  2
ExAcXREFPanelObject
  3
EXAC_ESW
 90
     1025
280
     0
281
     0
  0
CLASS
  1
NPOCOLLECTION
  2
AcDbImpNonPersistentObjectsCollection
  3
ObjectDBX Classes
 90
     1153
280
     0
281
     0
  0
CLASS
  1
FIELD
  2
AcDbField
  3
ObjectDBX Classes
 90
    33920
280
     0
281
     0
  0
CLASS
  1
FIELDLIST
  2
AcDbFieldList
  3
ObjectDBX Classes
 90
     1152
280
     0
281
     0
  0
ENDSEC
  0
SECTION
  2
TABLES
  0
TABLE
  2
VPORT
  5
8
102
{ACAD_XDICTIONARY
360
64A9
102
}
330
0
100
AcDbSymbolTable
 70
     1
  0
VPORT
  5
63F9
330
8
100
AcDbSymbolTableRecord
100
AcDbViewportTableRecord
  2
*Active
 70
     0
 10
0.0
 20
0.0
 11
1.0
 21
1.0
 12
38.10467380989103
 22
22.42516025356274
 13
0.0
 23
0.0
 14
1.0
 24
1.0
 15
0.0
 25
0.0
 16
0.0
 26
0.0
 36
1.0
 17
0.0
 27
0.0
 37
0.0
 40
45.15957066766908
 41
2.123147092360319
 42
50.0
 43
0.0
 44
0.0
 50
0.0
 51
0.0
 71
     0
 72
  2000
 73
     1
 74
     0
 75
     0
 76
     0
 77
     0
 78
     0
281
     0
 65
     1
110
0.0
120
0.0
130
0.0
111
1.0
121
0.0
131
0.0
112
0.0
122
1.0
132
0.0
 79
     0
146
0.0
1001
ACAD_NAV_VCDISPLAY
1070
     3
  0
ENDTAB
  0
TABLE
  2
LTYPE
  5
5
330
0
100
AcDbSymbolTable
 70
     4
  0
LTYPE
  5
11
330
5
100
AcDbSymbolTableRecord
100
AcDbLinetypeTableRecord
  2
BYBLOCK
 70
     0
  3

 72
    65
 73
     0
 40
0.0
  0
LTYPE
  5
12
330
5
100
AcDbSymbolTableRecord
100
AcDbLinetypeTableRecord
  2
BYLAYER
 70
     0
  3

 72
    65
 73
     0
 40
0.0
  0
LTYPE
  5
13
330
5
100
AcDbSymbolTableRecord
100
AcDbLinetypeTableRecord
  2
CONTINUOUS
 70
     0
  3
Solid line
 72
    65
 73
     0
 40
0.0
  0
LTYPE
  5
5549
330
5
100
AcDbSymbolTableRecord
100
AcDbLinetypeTableRecord
  2
DASHED
 70
     0
  3
Dashed __ __ __ __ __ __ __ __ __ __ __ __ __ _
 72
    65
 73
     2
 40
0.75
 49
0.5
 74
     0
 49
-0.25
 74
     0
  0
ENDTAB
  0
TABLE
  2
LAYER
  5
2
102
{ACAD_XDICTIONARY
360
6488
102
}
330
0
100
AcDbSymbolTable
 70
     8
  0
LAYER
  5
E
102
{ACAD_XDICTIONARY
360
6498
102
}
330
2
100
AcDbSymbolTableRecord
100
AcDbLayerTableRecord
  2
0
 70
     0
 62
     7
  6
CONTINUOUS
370
    -3
390
55DF
  0
LAYER
  5
276
102
{ACAD_XDICTIONARY
360
649A
102
}
330
2
100
AcDbSymbolTableRecord
100
AcDbLayerTableRecord
  2
PART_NUMBERS
 70
     0
 62
     6
  6
CONTINUOUS
370
    -3
390
55DF
  0
LAYER
  5
34CC
102
{ACAD_XDICTIONARY
360
649C
102
}
330
2
100
AcDbSymbolTableRecord
100
AcDbLayerTableRecord
  2
R-SWTS-DET1
 70
     0
 62
     1
  6
CONTINUOUS
370
    -3
390
55DF
  0
LAYER
  5
34CD
102
{ACAD_XDICTIONARY
360
649E
102
}
330
2
100
AcDbSymbolTableRecord
100
AcDbLayerTableRecord
  2
R-SWTS-DET2
 70
     0
 62
     4
  6
CONTINUOUS
370
    -3
390
55DF
  0
LAYER
  5
34CE
102
{ACAD_XDICTIONARY
360
64A0
102
}
330
2
100
AcDbSymbolTableRecord
100
AcDbLayerTableRecord
  2
R-SWTS-DET3
 70
     0
 62
     5
  6
CONTINUOUS
370
    -3
390
55DF
  0
LAYER
  5
34CF
102
{ACAD_XDICTIONARY
360
64A2
102
}
330
2
100
AcDbSymbolTableRecord
100
AcDbLayerTableRecord
  2
R-ANNO-DIMS
 70
     0
 62
     3
  6
CONTINUOUS
370
    -3
390
55DF
  0
LAYER
  5
6502
102
{ACAD_XDICTIONARY
360
6503
102
}
330
2
100
AcDbSymbolTableRecord
100
AcDbLayerTableRecord
  2
TEXT
 70
     0
 62
     3
  6
CONTINUOUS
370
    -3
390
55DF
  0
LAYER
  5
6A3E
330
2
100
AcDbSymbolTableRecord
100
AcDbLayerTableRecord
  2
Kawneer Logo-English
 70
     0
 62
     7
  6
CONTINUOUS
370
    -3
390
55DF
1001
AcAecLayerStandard
1000

1000

1001
AcCmTransparency
1071
        0
  0
ENDTAB
  0
TABLE
  2
STYLE
  5
3
330
0
100
AcDbSymbolTable
 70
     1
  0
STYLE
  5
F
330
3
100
AcDbSymbolTableRecord
100
AcDbTextStyleTableRecord
  2
STANDARD
 70
     0
 40
0.0
 41
1.0
 50
0.0
 71
     0
 42
0.25
  3
arial.ttf
  4

1001
ACAD
1000
Arial
1071
       34
  0
ENDTAB
  0
TABLE
  2
VIEW
  5
6
330
0
100
AcDbSymbolTable
 70
     0
  0
ENDTAB
  0
TABLE
  2
UCS
  5
7
330
0
100
AcDbSymbolTable
 70
     0
  0
ENDTAB
  0
TABLE
  2
APPID
  5
9
330
0
100
AcDbSymbolTable
 70
    16
  0
APPID
  5
10
330
9
100
AcDbSymbolTableRecord
100
AcDbRegAppTableRecord
  2
ACAD
 70
     0
  0
APPID
  5
6506
330
9
100
AcDbSymbolTableRecord
100
AcDbRegAppTableRecord
  2
ACAD_NAV_VCDISPLAY
 70
     0
  0
APPID
  5
6A4A
330
9
100
AcDbSymbolTableRecord
100
AcDbRegAppTableRecord
  2
AcAecLayerStandard
 70
     0
  0
APPID
  5
6A4B
330
9
100
AcDbSymbolTableRecord
100
AcDbRegAppTableRecord
  2
AcCmTransparency
 70
     0
  0
APPID
  5
6B67
330
9
100
AcDbSymbolTableRecord
100
AcDbRegAppTableRecord
  2
ACAD_MLEADERVER
 70
     0
  0
ENDTAB
  0
TABLE
  2
DIMSTYLE
  5
A
330
0
100
AcDbSymbolTable
 70
     1
100
AcDbDimStyleTable
 71
     0
  0
DIMSTYLE
105
26C
330
A
100
AcDbSymbolTableRecord
100
AcDbDimStyleTableRecord
  2
STANDARD
 70
     0
340
F
  0
ENDTAB
  0
TABLE
  2
BLOCK_RECORD
  5
1
330
0
100
AcDbSymbolTable
 70
     3
  0
BLOCK_RECORD
  5
17
102
{ACAD_XDICTIONARY
360
579A
102
}
330
1
100
AcDbSymbolTableRecord
100
AcDbBlockTableRecord
  2
*MODEL_SPACE
340
55E2
  0
BLOCK_RECORD
  5
14
102
{ACAD_XDICTIONARY
360
5798
102
}
330
1
100
AcDbSymbolTableRecord
100
AcDbBlockTableRecord
  2
*PAPER_SPACE
340
55E3
  0
BLOCK_RECORD
  5
5679
330
1
100
AcDbSymbolTableRecord
100
AcDbBlockTableRecord
  2
*X0
340
0
102
{BLKREFS
331
5709
331
637D
102
}
  0
BLOCK_RECORD
  5
6A4E
102
{ACAD_XDICTIONARY
360
6A58
102
}
330
1
100
AcDbSymbolTableRecord
100
AcDbBlockTableRecord
  2
Kawneer Logo English
340
0
102
{BLKREFS
331
6B0C
331
6B13
102
}
1001
ACAD
1000
DesignCenter Data
1002
{
1070
     1
1070
     1
1002
}
  0
ENDTAB
  0
ENDSEC
  0
SECTION
  2
BLOCKS
  0
BLOCK
  5
3C
330
17
100
AcDbEntity
  8
0
100
AcDbBlockBegin
  2
*MODEL_SPACE
 70
     0
 10
0.0
 20
0.0
 30
0.0
  3
*MODEL_SPACE
  1

  0
ENDBLK
  5
3D
330
17
100
AcDbEntity
  8
0
100
AcDbBlockEnd
  0
BLOCK
  5
3A
330
14
100
AcDbEntity
 67
     1
  8
0
100
AcDbBlockBegin
  2
*PAPER_SPACE
 70
     0
 10
0.0
 20
0.0
 30
0.0
  3
*PAPER_SPACE
  1

  0
ENDBLK
  5
3B
330
14
100
AcDbEntity
 67
     1
  8
0
100
AcDbBlockEnd
  0
BLOCK
  5
5686
330
5679
100
AcDbEntity
  8
0
100
AcDbBlockBegin
  2
*X0
 70
     1
 10
0.0
 20
0.0
 30
0.0
  3
*X0
  1

  0
LINE
  5
567A
330
5679
100
AcDbEntity
  8
0
 62
     0
100
AcDbLine
 10
12.45081967526307
 20
5.202975168100961
 30
0.0
 11
12.5669389567643
 21
5.319094449602187
 31
0.0
  0
LINE
  5
567B
330
5679
100
AcDbEntity
  8
0
 62
     0
100
AcDbLine
 10
12.45112414744807
 20
5.238634979345285
 30
0.0
 11
12.56735023073282
 21
5.354861062630033
 31
0.0
  0
LINE
  5
567C
330
5679
100
AcDbEntity
  8
0
 62
     0
100
AcDbLine
 10
12.45142861963307
 20
5.274294790589612
 30
0.0
 11
12.56776150470134
 21
5.39062767565788
 31
0.0
  0
LINE
  5
567D
330
5679
100
AcDbEntity
  8
0
 62
     0
100
AcDbLine
 10
12.45173309181806
 20
5.309954601833937
 30
0.0
 11
12.56817277866985
 21
5.426394288685725
 31
0.0
  0
LINE
  5
567E
330
5679
100
AcDbEntity
  8
0
 62
     0
100
AcDbLine
 10
12.45203756400306
 20
5.345614413078264
 30
0.0
 11
12.54472718197679
 21
5.438304031051989
 31
0.0
  0
LINE
  5
567F
330
5679
100
AcDbEntity
  8
0
 62
     0
100
AcDbLine
 10
12.45234203618806
 20
5.381274224322591
 30
0.0
 11
12.50855376512159
 21
5.437485953256111
 31
0.0
  0
LINE
  5
5680
330
5679
100
AcDbEntity
  8
0
 62
     0
100
AcDbLine
 10
12.45264650837306
 20
5.416934035566915
 30
0.0
 11
12.47238034826638
 21
5.436667875460232
 31
0.0
  0
LINE
  5
5681
330
5679
100
AcDbEntity
  8
0
 62
     0
100
AcDbLine
 10
12.45051520307807
 20
5.167315356856635
 30
0.0
 11
12.56652768279578
 21
5.28332783657434
 31
0.0
  0
LINE
  5
5682
330
5679
100
AcDbEntity
  8
0
 62
     0
100
AcDbLine
 10
12.45021073089307
 20
5.131655545612308
 30
0.0
 11
12.56611640882726
 21
5.247561223546494
 31
0.0
  0
LINE
  5
5683
330
5679
100
AcDbEntity
  8
0
 62
     0
100
AcDbLine
 10
12.44990625870808
 20
5.095995734367983
 30
0.0
 11
12.56570513485874
 21
5.211794610518648
 31
0.0
  0
LINE
  5
5684
330
5679
100
AcDbEntity
  8
0
 62
     0
100
AcDbLine
 10
12.46156760490999
 20
5.072301741510574
 30
0.0
 11
12.56529386089022
 21
5.176027997490801
 31
0.0
  0
LINE
  5
5685
330
5679
100
AcDbEntity
  8
0
 62
     0
100
AcDbLine
 10
12.51533724007249
 20
5.090716037613748
 30
0.0
 11
12.54746836782101
 21
5.122847165362261
 31
0.0
  0
ENDBLK
  5
5687
330
5679
100
AcDbEntity
  8
0
100
AcDbBlockEnd
  0
BLOCK
  5
6A5A
330
6A4E
100
AcDbEntity
  8
0
100
AcDbBlockBegin
  2
Kawneer Logo English
 70
     0
 10
0.0
 20
0.0
 30
0.0
  3
Kawneer Logo English
  1

  0
MTEXT
  5
6A4F
102
{ACAD_XDICTIONARY
360
6B2B
102
}
330
6A4E
100
AcDbEntity
  8
Kawneer Logo-English
100
AcDbMText
 10
1.510096758583198
 20
0.0372523876656778
 30
0.0
 40
0.036
 41
0.6125900866323382
 71
     3
 72
     5
  1
{\fArial TUR|b0|i0|c0|p34;\T1.05;AN ARCONIC COMPANY}
 73
     1
 44
1.0
1001
ACAD
1000
ACAD_MTEXT_COLUMN_INFO_BEGIN
1070
    75
1070
     2
1070
    79
1070
     0
1070
    76
1070
     1
1070
    78
1070
     0
1070
    48
1040
0.6125900866323382
1070
    49
1040
1.0
1070
    50
1070
     1
1040
0.0
1000
ACAD_MTEXT_COLUMN_INFO_END
1000
MTEXTBEGIN
1070
    73
1070
     1
1070
    44
1040
1.0
1070
    74
1070
     0
1000
MTEXTEND
  0
HATCH
  5
6A50
330
6A4E
100
AcDbEntity
  8
Kawneer Logo-English
100
AcDbHatch
 10
0.0
 20
0.0
 30
0.0
210
0.0
220
0.0
230
1.0
  2
SOLID
 70
     1
 71
     0
 91
        1
 92
        1
 93
       81
 72
     1
 10
0.2706169776412204
 20
0.0336337282279411
 11
0.2687512969786691
 21
0.0350329887248546
 72
     1
 10
0.2687512969786696
 20
0.0350329887248547
 11
0.2633408230572721
 21
0.039137486182467
 72
     1
 10
0.2633408230572729
 20
0.0391374861824669
 11
0.2550385441089194
 21
0.0453875164020133
 72
     1
 10
0.2550385441089191
 20
0.0453875164020132
 11
0.2442175962661241
 21
0.053596511317238
 72
     1
 10
0.2442175962661235
 20
0.0535965113172379
 11
0.2314376837276472
 21
0.0632980507625037
 72
     1
 10
0.2314376837276479
 20
0.0632980507625037
 11
0.2172585106922595
 21
0.0741189986052996
 72
     1
 10
0.2172585106922598
 20
0.0741189986052996
 11
0.2019599292593419
 21
0.0856862187131167
 72
     1
 10
0.201959929259341
 20
0.0856862187131167
 11
0.1862882116939105
 21
0.0976265749534437
 72
     1
 10
0.1862882116939102
 20
0.0976265749534437
 11
0.1706164941284813
 21
0.1095669311937706
 72
     1
 10
0.1706164941284811
 20
0.1095669311937709
 11
0.1553179126955632
 21
0.1211341513015875
 72
     1
 10
0.1553179126955642
 20
0.1211341513015876
 11
0.1411387396601757
 21
0.131955099144384
 72
     1
 10
0.1411387396601755
 20
0.1319550991443839
 11
0.1284521111548274
 21
0.141749922622777
 72
     1
 10
0.1284521111548278
 20
0.1417499226227768
 11
0.117631163312031
 21
0.1499589175380016
 72
     1
 10
0.1176311633120304
 20
0.1499589175380017
 11
0.1094221683968068
 21
0.1563022317906752
 72
     1
 10
0.1094221683968062
 20
0.1563022317906754
 11
0.1041049785085351
 21
0.1604067292482882
 72
     1
 10
0.1041049785085351
 20
0.1604067292482878
 11
0.1023325818791119
 21
0.1618992737783286
 72
     1
 10
0.1023325818791116
 20
0.1618992737783289
 11
0.1043848306079176
 21
0.1636716704077524
 72
     1
 10
0.1043848306079194
 20
0.1636716704077524
 11
0.1100751566286996
 21
0.1683358720641301
 72
     1
 10
0.1100751566286986
 20
0.1683358720641301
 11
0.1189371397758159
 21
0.1757053106812067
 72
     1
 10
0.1189371397758161
 20
0.1757053106812067
 11
0.1304110758505067
 21
0.1851269980270901
 72
     1
 10
0.1304110758505059
 20
0.1851269980270902
 11
0.1439372606540007
 21
0.1963210820023967
 72
     1
 10
0.1439372606540017
 20
0.1963210820023967
 11
0.1589559899875385
 21
0.2087278584083611
 72
     1
 10
0.1589559899875379
 20
0.2087278584083611
 11
0.1750941277186041
 21
0.2220674751456017
 72
     1
 10
0.1750941277186047
 20
0.2220674751456017
 11
0.19169868561531
 21
0.2358735120484796
 72
     1
 10
0.1916986856153105
 20
0.2358735120484796
 11
0.208303243512014
 21
0.2495862649182301
 72
     1
 10
0.2083032435120131
 20
0.2495862649182304
 11
0.2244413812430811
 21
0.2628325976223432
 72
     1
 10
0.2244413812430812
 20
0.2628325976223429
 11
0.239460110576618
 21
0.2753326580614352
 72
     1
 10
0.2394601105766174
 20
0.2753326580614351
 11
0.2529862953801122
 21
0.2864334580036143
 72
     1
 10
0.2529862953801132
 20
0.2864334580036143
 11
0.2643669474216756
 21
0.2958551453494973
 72
     1
 10
0.2643669474216757
 20
0.2958551453494973
 11
0.2731356465356649
 21
0.3031312999334466
 72
     1
 10
0.273135646535664
 20
0.3031312999334466
 11
0.2788259725564443
 21
0.3077955015898243
 72
     1
 10
0.278825972556445
 20
0.3077955015898246
 11
0.2807849372521245
 21
0.3094746141861208
 72
     1
 10
0.2807849372521249
 20
0.3094746141861205
 11
0.2798520969208501
 21
0.3094746141861205
 72
     1
 10
0.2798520969208496
 20
0.3094746141861205
 11
0.2769602918938953
 21
0.3095678982192478
 72
     1
 10
0.2769602918938943
 20
0.3095678982192481
 11
0.2724826583037715
 21
0.3095678982192481
 72
     1
 10
0.2724826583037729
 20
0.3095678982192481
 11
0.2666057642167363
 21
0.3095678982192481
 72
     1
 10
0.266605764216735
 20
0.3095678982192481
 11
0.2597027457652953
 21
0.3095678982192481
 72
     1
 10
0.2597027457652956
 20
0.3095678982192481
 11
0.2519601710157094
 21
0.3095678982192481
 72
     1
 10
0.2519601710157104
 20
0.3095678982192481
 11
0.2437511761004851
 21
0.3095678982192481
 72
     1
 10
0.243751176100484
 20
0.3095678982192481
 11
0.2351690450527495
 21
0.3095678982192481
 72
     1
 10
0.2351690450527495
 20
0.3095678982192481
 11
0.2266801980381413
 21
0.3095678982192481
 72
     1
 10
0.2266801980381423
 20
0.3095678982192481
 11
0.2183779190897905
 21
0.3094746141861208
 72
     1
 10
0.2183779190897899
 20
0.3094746141861205
 11
0.2106353443402037
 21
0.3094746141861205
 72
     1
 10
0.2106353443402029
 20
0.3094746141861205
 11
0.2037323258887632
 21
0.3094746141861205
 72
     1
 10
0.203732325888764
 20
0.3094746141861205
 11
0.1978554318017273
 21
0.3094746141861205
 72
     1
 10
0.1978554318017278
 20
0.3094746141861205
 11
0.1932845141784786
 21
0.3094746141861205
 72
     1
 10
0.1932845141784787
 20
0.3094746141861205
 11
0.1903927091515244
 21
0.3094746141861205
 72
     1
 10
0.1903927091515234
 20
0.3094746141861205
 11
0.1893665847871204
 21
0.3094746141861205
 72
     1
 10
0.1893665847871206
 20
0.3094746141861205
 11
0.1879673242902067
 21
0.3077955015898243
 72
     1
 10
0.1879673242902076
 20
0.3077955015898246
 11
0.1841426789319786
 21
0.3030380159003196
 72
     1
 10
0.1841426789319787
 20
0.3030380159003192
 11
0.1780792167786874
 21
0.29576186131637
 72
     1
 10
0.1780792167786873
 20
0.29576186131637
 11
0.170243357995973
 21
0.2862468899373593
 72
     1
 10
0.170243357995973
 20
0.2862468899373593
 11
0.1610082387163447
 21
0.2750528059620528
 72
     1
 10
0.1610082387163438
 20
0.2750528059620528
 11
0.1507469950723126
 21
0.2624594614898328
 72
     1
 10
0.1507469950723133
 20
0.2624594614898328
 11
0.1396461951301336
 21
0.2491198447525922
 72
     1
 10
0.1396461951301333
 20
0.2491198447525922
 11
0.1282655430885727
 21
0.2352205238165866
 72
     1
 10
0.1282655430885726
 20
0.2352205238165868
 11
0.1168848910470102
 21
0.2214144869137089
 72
     1
 10
0.1168848910470102
 20
0.2214144869137087
 11
0.1058773751379587
 21
0.2079815861433408
 72
     1
 10
0.105877375137958
 20
0.2079815861433408
 11
0.0955228474608004
 21
0.1954815257042486
 72
     1
 10
0.0955228474608019
 20
0.1954815257042488
 11
0.0862877281811736
 21
0.1842874417289424
 72
     1
 10
0.0862877281811727
 20
0.1842874417289424
 11
0.0784518693984583
 21
0.1747724703499316
 72
     1
 10
0.0784518693984584
 20
0.1747724703499314
 11
0.0723884072451672
 21
0.1674963157659821
 72
     1
 10
0.0723884072451671
 20
0.1674963157659822
 11
0.0685637618869363
 21
0.1627388300764767
 72
     1
 10
0.0685637618869364
 20
0.1627388300764767
 11
0.0671645013900242
 21
0.1611530015133082
 72
     1
 10
0.0671645013900251
 20
0.1611530015133082
 11
0.0680040576881734
 21
0.1596604569832674
 72
     1
 10
0.0680040576881726
 20
0.1596604569832674
 11
0.0704294425494878
 21
0.1556492435587824
 72
     1
 10
0.0704294425494871
 20
0.1556492435587824
 11
0.0742540879077179
 21
0.1493059293061089
 72
     1
 10
0.0742540879077192
 20
0.1493059293061089
 11
0.0791048576303511
 21
0.1411902184240116
 72
     1
 10
0.0791048576303508
 20
0.1411902184240116
 11
0.0848884676842594
 21
0.1314886789787458
 72
     1
 10
0.0848884676842596
 20
0.1314886789787459
 11
0.0913250659700619
 21
0.1207610151690772
 72
     1
 10
0.0913250659700613
 20
0.1207610151690775
 11
0.0982280844214992
 21
0.1091937950612604
 72
     1
 10
0.0982280844214985
 20
0.1091937950612603
 11
0.1053176709391927
 21
0.0973467228540611
 72
     1
 10
0.105317670939193
 20
0.0973467228540612
 11
0.1124072574568872
 21
0.0854996506468619
 72
     1
 10
0.1124072574568871
 20
0.0854996506468617
 11
0.1193102759083267
 21
0.0739324305390446
 72
     1
 10
0.1193102759083278
 20
0.0739324305390448
 11
0.1257468741941283
 21
0.0632047667293762
 72
     1
 10
0.1257468741941277
 20
0.063204766729376
 11
0.1315304842480362
 21
0.0535032272841102
 72
     1
 10
0.1315304842480365
 20
0.0535032272841104
 11
0.1363812539706702
 21
0.0453875164020132
 72
     1
 10
0.1363812539706699
 20
0.0453875164020132
 11
0.1402058993288989
 21
0.0391374861824667
 72
     1
 10
0.1402058993288988
 20
0.0391374861824669
 11
0.1426312841902157
 21
0.0350329887248546
 72
     1
 10
0.1426312841902164
 20
0.0350329887248547
 11
0.1434708404883648
 21
0.0336337282279412
 72
     1
 10
0.143470840488364
 20
0.0336337282279411
 11
0.2706169776412211
 21
0.0336337282279411
 97
        0
 75
     0
 76
     1
 98
        1
 10
-0.3743130907707726
 20
-0.2500502867693841
1001
ACAD
1010
0.0
1020
0.0
1030
0.0
  0
HATCH
  5
6A51
330
6A4E
100
AcDbEntity
  8
Kawneer Logo-English
100
AcDbHatch
 10
0.0
 20
0.0
 30
0.0
210
0.0
220
0.0
230
1.0
  2
SOLID
 70
     1
 71
     0
 91
        1
 92
        1
 93
       18
 72
     1
 10
0.0001865656044393
 20
0.2563959993365415
 11
-0.0000000024618153
 21
0.113671428651383
 72
     1
 10
-0.0000000024618159
 20
0.1136714286513832
 11
0.0012126899688416
 21
0.1152572572145516
 72
     1
 10
0.0012126899688421
 20
0.1152572572145516
 11
0.0045709151614355
 21
0.1197348908046738
 72
     1
 10
0.004570915161435
 20
0.119734890804674
 11
0.0098881050497044
 21
0.1268244773223682
 72
     1
 10
0.0098881050497044
 20
0.1268244773223682
 11
0.0166978394680158
 21
0.1359663125688683
 72
     1
 10
0.016697839468016
 20
0.1359663125688683
 11
0.0248135503501131
 21
0.1467872604116651
 72
     1
 10
0.024813550350113
 20
0.1467872604116652
 11
0.0338621015634867
 21
0.1588209006851195
 72
     1
 10
0.0338621015634872
 20
0.1588209006851194
 11
0.0434703569756247
 21
0.1716940972567221
 72
     1
 10
0.0434703569756247
 20
0.1716940972567224
 11
0.0534517485202732
 21
0.1850337139939626
 72
     1
 10
0.0534517485202724
 20
0.1850337139939624
 11
0.0634331400649208
 21
0.1983733307312025
 72
     1
 10
0.0634331400649222
 20
0.1983733307312024
 11
0.0730413954770597
 21
0.2112465273028051
 72
     1
 10
0.0730413954770595
 20
0.2112465273028053
 11
0.0820899466904331
 21
0.2233734516093873
 72
     1
 10
0.0820899466904321
 20
0.2233734516093873
 11
0.0902056575725293
 21
0.2341943994521837
 72
     1
 10
0.0902056575725308
 20
0.2341943994521837
 11
0.0970153919908422
 21
0.2433362346986839
 72
     1
 10
0.0970153919908405
 20
0.2433362346986839
 11
0.1022392978459834
 21
0.2503325371832507
 72
     1
 10
0.1022392978459843
 20
0.2503325371832508
 11
0.1056908070717041
 21
0.2549034548065008
 72
     1
 10
0.1056908070717046
 20
0.254903454806501
 11
0.1069034995023621
 21
0.2564892833696694
 72
     1
 10
0.1069034995023625
 20
0.2564892833696695
 11
0.0001865656044399
 21
0.2563959993365418
 97
        0
 75
     0
 76
     1
 98
        1
 10
-0.3743130907707726
 20
-0.2500502867693841
1001
ACAD
1010
0.0
1020
0.0
1030
0.0
  0
HATCH
  5
6A52
330
6A4E
100
AcDbEntity
  8
Kawneer Logo-English
100
AcDbHatch
 10
0.0
 20
0.0
 30
0.0
210
0.0
220
0.0
230
1.0
  2
SOLID
 70
     1
 71
     0
 91
        2
 92
       16
 93
       76
 72
     1
 10
1.358402087941634
 20
0.1650709309046659
 11
1.358402087941634
 21
0.16796273593162
 72
     1
 10
1.358402087941634
 20
0.1679627359316202
 11
1.358402087941634
 21
0.1729067896873803
 72
     1
 10
1.358402087941634
 20
0.1729067896873803
 11
1.358402087941634
 21
0.1791568199069267
 72
     1
 10
1.358402087941634
 20
0.1791568199069267
 11
1.358402087941634
 21
0.1861531223914932
 72
     1
 10
1.358402087941634
 20
0.186153122391493
 11
1.358402087941634
 21
0.1931494248760595
 72
     1
 10
1.358402087941634
 20
0.1931494248760596
 11
1.358402087941634
 21
0.1994927391287338
 72
     1
 10
1.358402087941634
 20
0.1994927391287336
 11
1.358402087941634
 21
0.2044367928844937
 72
     1
 10
1.358402087941634
 20
0.2044367928844937
 11
1.358402087941634
 21
0.2072353138783208
 72
     1
 10
1.358402087941634
 20
0.2072353138783208
 11
1.359894632471676
 21
0.2072353138783208
 72
     1
 10
1.359894632471676
 20
0.2072353138783208
 11
1.362693153465502
 21
0.2072353138783208
 72
     1
 10
1.362693153465502
 20
0.2072353138783208
 11
1.366424514790605
 21
0.2072353138783208
 72
     1
 10
1.366424514790606
 20
0.2072353138783208
 11
1.371088716446983
 21
0.2072353138783208
 72
     1
 10
1.371088716446982
 20
0.2072353138783208
 11
1.376405906335254
 21
0.2072353138783208
 72
     1
 10
1.376405906335254
 20
0.2072353138783208
 11
1.382282800422289
 21
0.2072353138783208
 72
     1
 10
1.38228280042229
 20
0.2072353138783208
 11
1.388346262575581
 21
0.2072353138783208
 72
     1
 10
1.388346262575579
 20
0.2072353138783208
 11
1.394596292795125
 21
0.2072353138783208
 72
     1
 10
1.394596292795125
 20
0.2072353138783208
 11
1.400753038981545
 21
0.2072353138783208
 72
     1
 10
1.400753038981546
 20
0.2072353138783208
 11
1.406723217101709
 21
0.2072353138783208
 72
     1
 10
1.406723217101708
 20
0.2072353138783208
 11
1.412320259089362
 21
0.2072353138783208
 72
     1
 10
1.412320259089362
 20
0.2072353138783208
 11
1.417264312845122
 21
0.2072353138783208
 72
     1
 10
1.417264312845123
 20
0.2072353138783208
 11
1.421368810302735
 21
0.2072353138783208
 72
     1
 10
1.421368810302734
 20
0.2072353138783208
 11
1.424540467429071
 21
0.2072353138783208
 72
     1
 10
1.424540467429072
 20
0.2072353138783208
 11
1.426592716157878
 21
0.2072353138783208
 72
     1
 10
1.426592716157878
 20
0.2072353138783208
 11
1.427338988422898
 21
0.2072353138783208
 72
     1
 10
1.427338988422898
 20
0.2072353138783208
 11
1.430977065714873
 21
0.207142029845193
 72
     1
 10
1.430977065714872
 20
0.207142029845193
 11
1.434335290907465
 21
0.2068621777458102
 72
     1
 10
1.434335290907465
 20
0.2068621777458102
 11
1.435921119470633
 21
0.2066756096795552
 72
     1
 10
1.435921119470633
 20
0.206675609679555
 11
1.437413664000673
 21
0.2063957575801723
 72
     1
 10
1.437413664000674
 20
0.2063957575801723
 11
1.438906208530714
 21
0.2061159054807895
 72
     1
 10
1.438906208530714
 20
0.2061159054807898
 11
1.440398753060756
 21
0.2056494853151523
 72
     1
 10
1.440398753060756
 20
0.2056494853151521
 11
1.441704729524542
 21
0.2050897811163865
 72
     1
 10
1.441704729524542
 20
0.2050897811163866
 11
1.443010705988328
 21
0.204530076917621
 72
     1
 10
1.443010705988329
 20
0.204530076917621
 11
1.444223398418986
 21
0.2036905206194736
 72
     1
 10
1.444223398418985
 20
0.2036905206194736
 11
1.445436090849643
 21
0.2028509643213252
 72
     1
 10
1.445436090849643
 20
0.2028509643213252
 11
1.446555499247174
 21
0.2018248399569224
 72
     1
 10
1.446555499247173
 20
0.2018248399569223
 11
1.447581623611576
 21
0.2007054315593917
 72
     1
 10
1.447581623611578
 20
0.2007054315593915
 11
1.448607747975981
 21
0.1993061710624781
 72
     1
 10
1.448607747975981
 20
0.1993061710624781
 11
1.449540588307258
 21
0.1978136265324374
 72
     1
 10
1.449540588307256
 20
0.1978136265324373
 11
1.450380144605403
 21
0.1961345139361415
 72
     1
 10
1.450380144605404
 20
0.1961345139361415
 11
1.451126416870426
 21
0.1944554013398453
 72
     1
 10
1.451126416870426
 20
0.1944554013398454
 11
1.451592837036063
 21
0.1929628568098046
 72
     1
 10
1.451592837036062
 20
0.1929628568098046
 11
1.451965973168573
 21
0.1913770282466361
 72
     1
 10
1.451965973168574
 20
0.1913770282466361
 11
1.452245825267955
 21
0.1899777677497231
 72
     1
 10
1.452245825267954
 20
0.1899777677497231
 11
1.452432393334211
 21
0.188671791285937
 72
     1
 10
1.452432393334211
 20
0.1886717912859369
 11
1.452432393334211
 21
0.1874590988552789
 72
     1
 10
1.452432393334211
 20
0.1874590988552789
 11
1.452525677367338
 21
0.1863396904577482
 72
     1
 10
1.452525677367337
 20
0.1863396904577481
 11
1.452432393334211
 21
0.1844740097951972
 72
     1
 10
1.452432393334211
 20
0.1844740097951974
 11
1.452245825267955
 21
0.1827948971989012
 72
     1
 10
1.452245825267954
 20
0.1827948971989009
 11
1.451872689135445
 21
0.1810225005694773
 72
     1
 10
1.451872689135446
 20
0.1810225005694774
 11
1.451406268969809
 21
0.1794366720063093
 72
     1
 10
1.451406268969809
 20
0.1794366720063094
 11
1.450846564771043
 21
0.1779441274762682
 72
     1
 10
1.450846564771041
 20
0.1779441274762681
 11
1.450100292506021
 21
0.1764515829462274
 72
     1
 10
1.450100292506023
 20
0.1764515829462275
 11
1.449260736207875
 21
0.1750523224493141
 72
     1
 10
1.449260736207873
 20
0.1750523224493139
 11
1.448327895876597
 21
0.1737463459855283
 72
     1
 10
1.448327895876596
 20
0.1737463459855281
 11
1.44702191941281
 21
0.1723470854886151
 72
     1
 10
1.447021919412811
 20
0.1723470854886151
 11
1.445715942949025
 21
0.1711343930579568
 72
     1
 10
1.445715942949026
 20
0.1711343930579568
 11
1.444316682452114
 21
0.1700149846604262
 72
     1
 10
1.444316682452114
 20
0.1700149846604259
 11
1.442824137922072
 21
0.168988860296023
 72
     1
 10
1.442824137922072
 20
0.168988860296023
 11
1.441238309358904
 21
0.1682425880310024
 72
     1
 10
1.441238309358902
 20
0.1682425880310024
 11
1.439559196762608
 21
0.1674963157659821
 72
     1
 10
1.439559196762608
 20
0.1674963157659822
 11
1.437880084166311
 21
0.1669366115672166
 72
     1
 10
1.437880084166311
 20
0.1669366115672167
 11
1.436107687536888
 21
0.1664701914015788
 72
     1
 10
1.436107687536888
 20
0.1664701914015789
 11
1.434242006874337
 21
0.166003771235941
 72
     1
 10
1.434242006874337
 20
0.1660037712359412
 11
1.432376326211786
 21
0.1657239191365588
 72
     1
 10
1.432376326211785
 20
0.1657239191365585
 11
1.430417361516107
 21
0.1655373510703035
 72
     1
 10
1.430417361516108
 20
0.1655373510703037
 11
1.428458396820429
 21
0.1653507830040482
 72
     1
 10
1.428458396820428
 20
0.1653507830040482
 11
1.424353899362817
 21
0.1651642149377932
 72
     1
 10
1.424353899362817
 20
0.1651642149377932
 11
1.420156117872077
 21
0.1650709309046658
 72
     1
 10
1.420156117872076
 20
0.1650709309046659
 11
1.41773073301076
 21
0.1650709309046659
 72
     1
 10
1.417730733010761
 20
0.1650709309046659
 11
1.411107566658704
 21
0.1650709309046659
 72
     1
 10
1.411107566658702
 20
0.1650709309046659
 11
1.401779163345947
 21
0.1650709309046659
 72
     1
 10
1.401779163345949
 20
0.1650709309046659
 11
1.390958215503152
 21
0.1650709309046659
 72
     1
 10
1.390958215503152
 20
0.1650709309046659
 11
1.379950699594101
 21
0.1650709309046659
 72
     1
 10
1.379950699594099
 20
0.1650709309046659
 11
1.369969308049451
 21
0.1650709309046659
 72
     1
 10
1.369969308049451
 20
0.1650709309046659
 11
1.362320017332992
 21
0.1650709309046659
 72
     1
 10
1.362320017332992
 20
0.1650709309046659
 11
1.358402087941635
 21
0.1650709309046659
 97
        0
 92
        1
 93
      107
 72
     1
 10
1.443756978253348
 20
0.1485596570410883
 11
1.446928635379685
 21
0.1492126452729816
 72
     1
 10
1.446928635379685
 20
0.1492126452729817
 11
1.449540588307256
 21
0.1498656335048746
 72
     1
 10
1.449540588307256
 20
0.1498656335048745
 11
1.451872689135445
 21
0.1506119057698948
 72
     1
 10
1.451872689135446
 20
0.1506119057698946
 11
1.45401822189738
 21
0.1514514620680426
 72
     1
 10
1.45401822189738
 20
0.1514514620680425
 11
1.455883902559929
 21
0.1521977343330632
 72
     1
 10
1.455883902559929
 20
0.1521977343330631
 11
1.457563015156225
 21
0.1530372906312111
 72
     1
 10
1.457563015156225
 20
0.1530372906312111
 11
1.459148843719394
 21
0.1539701309624869
 72
     1
 10
1.459148843719394
 20
0.1539701309624866
 11
1.460641388249434
 21
0.1549029712937624
 72
     1
 10
1.460641388249434
 20
0.1549029712937622
 11
1.462133932779476
 21
0.155835811625038
 72
     1
 10
1.462133932779476
 20
0.155835811625038
 11
1.463439909243262
 21
0.1568619359894408
 72
     1
 10
1.463439909243262
 20
0.1568619359894408
 11
1.464745885707048
 21
0.1579813443869714
 72
     1
 10
1.464745885707047
 20
0.1579813443869716
 11
1.465865294104579
 21
0.1591007527845022
 72
     1
 10
1.465865294104579
 20
0.1591007527845025
 11
1.466984702502109
 21
0.1602201611820331
 72
     1
 10
1.466984702502108
 20
0.1602201611820328
 11
1.468010826866511
 21
0.1613395695795634
 72
     1
 10
1.468010826866511
 20
0.1613395695795637
 11
1.468943667197788
 21
0.1625522620102216
 72
     1
 10
1.468943667197788
 20
0.1625522620102216
 11
1.469876507529063
 21
0.1636716704077522
 72
     1
 10
1.469876507529063
 20
0.1636716704077524
 11
1.470622779794084
 21
0.1648843628384107
 72
     1
 10
1.470622779794084
 20
0.1648843628384107
 11
1.471462336092232
 21
0.1661903393021964
 72
     1
 10
1.471462336092232
 20
0.1661903393021967
 11
1.472115324324125
 21
0.1674030317328546
 72
     1
 10
1.472115324324124
 20
0.1674030317328546
 11
1.472768312556016
 21
0.1686157241635125
 72
     1
 10
1.472768312556017
 20
0.1686157241635125
 11
1.473328016754783
 21
0.1699217006272986
 72
     1
 10
1.473328016754782
 20
0.1699217006272989
 11
1.47379443692042
 21
0.1711343930579568
 72
     1
 10
1.47379443692042
 20
0.1711343930579568
 11
1.474260857086057
 21
0.1724403695217425
 72
     1
 10
1.474260857086058
 20
0.1724403695217424
 11
1.474727277251697
 21
0.1736530619524008
 72
     1
 10
1.474727277251697
 20
0.173653061952401
 11
1.475380265483589
 21
0.1760784468137175
 72
     1
 10
1.475380265483588
 20
0.1760784468137173
 11
1.475846685649225
 21
0.1785038316750338
 72
     1
 10
1.475846685649226
 20
0.1785038316750335
 11
1.476219821781737
 21
0.1808359325032223
 72
     1
 10
1.476219821781738
 20
0.1808359325032223
 11
1.47649967388112
 21
0.1830747492982838
 72
     1
 10
1.47649967388112
 20
0.1830747492982838
 11
1.476592957914248
 21
0.1851269980270901
 72
     1
 10
1.476592957914248
 20
0.1851269980270902
 11
1.476686241947374
 21
0.1870859627227688
 72
     1
 10
1.476686241947375
 20
0.1870859627227687
 11
1.476592957914249
 21
0.1888583593521923
 72
     1
 10
1.476592957914248
 20
0.1888583593521922
 11
1.476499673881119
 21
0.1906307559816158
 72
     1
 10
1.47649967388112
 20
0.1906307559816159
 11
1.476406389847991
 21
0.1924031526110394
 72
     1
 10
1.476406389847991
 20
0.1924031526110394
 11
1.476126537748608
 21
0.1940822652073352
 72
     1
 10
1.476126537748608
 20
0.1940822652073352
 11
1.475846685649226
 21
0.195761377803631
 72
     1
 10
1.475846685649226
 20
0.1957613778036309
 11
1.475566833549843
 21
0.1974404903999272
 72
     1
 10
1.475566833549843
 20
0.1974404903999272
 11
1.475100413384206
 21
0.1990263189630953
 72
     1
 10
1.475100413384205
 20
0.1990263189630952
 11
1.474633993218568
 21
0.2006121475262637
 72
     1
 10
1.474633993218568
 20
0.2006121475262639
 11
1.47416757305293
 21
0.2021046920563051
 72
     1
 10
1.474167573052932
 20
0.2021046920563049
 11
1.473514584821038
 21
0.2035972365863457
 72
     1
 10
1.473514584821037
 20
0.2035972365863459
 11
1.472954880622271
 21
0.2050897811163867
 72
     1
 10
1.472954880622272
 20
0.2050897811163866
 11
1.472208608357252
 21
0.2064890416133
 72
     1
 10
1.472208608357252
 20
0.2064890416133001
 11
1.471462336092232
 21
0.2078883021102135
 72
     1
 10
1.471462336092232
 20
0.2078883021102136
 11
1.470622779794083
 21
0.2091942785739993
 72
     1
 10
1.470622779794084
 20
0.2091942785739991
 11
1.469783223495935
 21
0.2105002550377848
 72
     1
 10
1.469783223495934
 20
0.2105002550377851
 11
1.468850383164659
 21
0.2118062315015707
 72
     1
 10
1.468850383164661
 20
0.2118062315015709
 11
1.467917542833386
 21
0.2130189239322288
 72
     1
 10
1.467917542833385
 20
0.2130189239322289
 11
1.466891418468982
 21
0.2141383323297595
 72
     1
 10
1.466891418468982
 20
0.2141383323297595
 11
1.465772010071451
 21
0.2153510247604178
 72
     1
 10
1.46577201007145
 20
0.215351024760418
 11
1.464652601673919
 21
0.2163771491248209
 72
     1
 10
1.46465260167392
 20
0.2163771491248209
 11
1.463533193276389
 21
0.2174032734892238
 72
     1
 10
1.463533193276389
 20
0.2174032734892238
 11
1.462227216812603
 21
0.2184293978536266
 72
     1
 10
1.462227216812602
 20
0.2184293978536266
 11
1.461014524381945
 21
0.2193622381849024
 72
     1
 10
1.461014524381946
 20
0.2193622381849023
 11
1.459615263885032
 21
0.2202950785161781
 72
     1
 10
1.459615263885031
 20
0.2202950785161782
 11
1.458309287421245
 21
0.2211346348143262
 72
     1
 10
1.458309287421246
 20
0.221134634814326
 11
1.456816742891206
 21
0.221974191112474
 72
     1
 10
1.456816742891206
 20
0.2219741911124738
 11
1.455417482394292
 21
0.2227204633774945
 72
     1
 10
1.455417482394291
 20
0.2227204633774944
 11
1.453831653831122
 21
0.2233734516093874
 72
     1
 10
1.453831653831123
 20
0.2233734516093873
 11
1.452339109301082
 21
0.2240264398412803
 72
     1
 10
1.452339109301082
 20
0.2240264398412803
 11
1.450659996704785
 21
0.2245861440400459
 72
     1
 10
1.450659996704787
 20
0.2245861440400457
 11
1.44907416814162
 21
0.2251458482388108
 72
     1
 10
1.449074168141619
 20
0.2251458482388109
 11
1.447301771512194
 21
0.2256122684044489
 72
     1
 10
1.447301771512194
 20
0.2256122684044488
 11
1.445249522783388
 21
0.2261719726032139
 72
     1
 10
1.445249522783388
 20
0.226171972603214
 11
1.44329055808771
 21
0.2265451087357246
 72
     1
 10
1.443290558087712
 20
0.2265451087357244
 11
1.441145025325778
 21
0.2269182448682345
 72
     1
 10
1.441145025325776
 20
0.2269182448682345
 11
1.438906208530714
 21
0.2271980969676173
 72
     1
 10
1.438906208530714
 20
0.2271980969676173
 11
1.436387539636271
 21
0.2273846650338724
 72
     1
 10
1.436387539636271
 20
0.2273846650338724
 11
1.433495734609316
 21
0.2275712331001274
 72
     1
 10
1.433495734609317
 20
0.2275712331001274
 11
1.430044225383597
 21
0.2276645171332552
 72
     1
 10
1.430044225383597
 20
0.2276645171332549
 11
1.42612629599224
 21
0.2277578011663822
 72
     1
 10
1.42612629599224
 20
0.2277578011663825
 11
1.426033011959112
 21
0.2277578011663825
 72
     1
 10
1.426033011959111
 20
0.2277578011663825
 11
1.33489451159349
 21
0.2277578011663825
 72
     1
 10
1.334894511593491
 20
0.2277578011663825
 11
1.334894511593491
 21
0.0926825211976832
 72
     1
 10
1.334894511593491
 20
0.0926825211976832
 11
1.358588656007891
 21
0.0926825211976832
 72
     1
 10
1.358588656007891
 20
0.0926825211976832
 11
1.358588656007891
 21
0.0947347699264896
 72
     1
 10
1.358588656007891
 20
0.0947347699264896
 11
1.358588656007891
 21
0.1001452438478876
 72
     1
 10
1.358588656007891
 20
0.1001452438478875
 11
1.358588656007891
 21
0.1079811026306024
 72
     1
 10
1.358588656007891
 20
0.1079811026306024
 11
1.358588656007891
 21
0.1170296538439752
 72
     1
 10
1.358588656007891
 20
0.1170296538439753
 11
1.358588656007891
 21
0.1262647731236032
 72
     1
 10
1.358588656007891
 20
0.1262647731236031
 11
1.358588656007891
 21
0.1347536201382103
 72
     1
 10
1.358588656007891
 20
0.1347536201382104
 11
1.358588656007891
 21
0.1412835024571394
 72
     1
 10
1.358588656007891
 20
0.1412835024571393
 11
1.358588656007891
 21
0.1448282957159864
 72
     1
 10
1.358588656007891
 20
0.1448282957159865
 11
1.362320017332992
 21
0.1448282957159865
 72
     1
 10
1.362320017332992
 20
0.1448282957159865
 11
1.369409603850688
 21
0.1448282957159865
 72
     1
 10
1.369409603850688
 20
0.1448282957159865
 11
1.378738007163443
 21
0.1448282957159865
 72
     1
 10
1.378738007163443
 20
0.1448282957159865
 11
1.388999250807475
 21
0.1448282957159865
 72
     1
 10
1.388999250807473
 20
0.1448282957159865
 11
1.399260494451505
 21
0.1448282957159865
 72
     1
 10
1.399260494451506
 20
0.1448282957159865
 11
1.408215761631749
 21
0.1448282957159865
 72
     1
 10
1.408215761631748
 20
0.1448282957159865
 11
1.414745643950677
 21
0.1448282957159865
 72
     1
 10
1.414745643950678
 20
0.1448282957159865
 11
1.41773073301076
 21
0.1448282957159865
 72
     1
 10
1.417730733010761
 20
0.1448282957159865
 11
1.420062833838949
 21
0.1420297747221594
 72
     1
 10
1.420062833838949
 20
0.1420297747221597
 11
1.425193455660966
 21
0.1359663125688683
 72
     1
 10
1.425193455660965
 20
0.1359663125688683
 11
1.432283042178659
 21
0.1275707495873888
 72
     1
 10
1.432283042178659
 20
0.1275707495873886
 11
1.440305469027628
 21
0.1180557782083779
 72
     1
 10
1.440305469027629
 20
0.1180557782083781
 11
1.448234611843471
 21
0.1087273748956225
 72
     1
 10
1.448234611843471
 20
0.1087273748956225
 11
1.455044346261782
 21
0.1006116640135252
 72
     1
 10
1.455044346261782
 20
0.1006116640135252
 11
1.459895115984414
 21
0.0948280539596167
 72
     1
 10
1.459895115984414
 20
0.0948280539596169
 11
1.461760796646965
 21
0.0926825211976832
 72
     1
 10
1.461760796646967
 20
0.0926825211976832
 11
1.49254452757906
 21
0.0926825211976832
 72
     1
 10
1.492544527579059
 20
0.0926825211976832
 11
1.490678846916508
 21
0.0948280539596169
 72
     1
 10
1.490678846916508
 20
0.0948280539596169
 11
1.48564150912762
 21
0.100518379980398
 72
     1
 10
1.48564150912762
 20
0.1005183799803981
 11
1.478458638576797
 21
0.1088206589287502
 72
     1
 10
1.478458638576798
 20
0.1088206589287502
 11
1.470063075595318
 21
0.1183356303077609
 72
     1
 10
1.470063075595317
 20
0.118335630307761
 11
1.461480944547582
 21
0.1282237378192818
 72
     1
 10
1.461480944547582
 20
0.1282237378192818
 11
1.453551801731739
 21
0.1372722890326546
 72
     1
 10
1.45355180173174
 20
0.1372722890326546
 11
1.447395055545323
 21
0.1444551595834761
 72
     1
 10
1.447395055545323
 20
0.1444551595834759
 11
1.443756978253349
 21
0.1485596570410882
 97
        0
 75
     0
 76
     1
 98
        1
 10
-0.3743130907707726
 20
-0.2500502867693841
1001
ACAD
1010
0.0
1020
0.0
1030
0.0
  0
HATCH
  5
6A53
330
6A4E
100
AcDbEntity
  8
Kawneer Logo-English
100
AcDbHatch
 10
0.0
 20
0.0
 30
0.0
210
0.0
220
0.0
230
1.0
  2
SOLID
 70
     1
 71
     0
 91
        1
 92
        1
 93
       87
 72
     1
 10
1.205602841678699
 20
0.1525708704655737
 11
1.207468522341251
 21
0.1525708704655737
 72
     1
 10
1.207468522341252
 20
0.1525708704655737
 11
1.211199883666355
 21
0.1525708704655737
 72
     1
 10
1.211199883666355
 20
0.1525708704655737
 11
1.216517073554626
 21
0.1525708704655737
 72
     1
 10
1.216517073554626
 20
0.1525708704655737
 11
1.223046955873555
 21
0.1525708704655737
 72
     1
 10
1.223046955873553
 20
0.1525708704655737
 11
1.230602962556885
 21
0.1525708704655737
 72
     1
 10
1.230602962556885
 20
0.1525708704655737
 11
1.238998525538365
 21
0.1525708704655737
 72
     1
 10
1.238998525538365
 20
0.1525708704655737
 11
1.247767224652354
 21
0.1525708704655737
 72
     1
 10
1.247767224652355
 20
0.1525708704655737
 11
1.256815775865728
 21
0.1525708704655737
 72
     1
 10
1.256815775865729
 20
0.1525708704655737
 11
1.265771043045974
 21
0.1525708704655737
 72
     1
 10
1.265771043045973
 20
0.1525708704655737
 11
1.274446458126836
 21
0.1525708704655737
 72
     1
 10
1.274446458126837
 20
0.1525708704655737
 11
1.282562169008935
 21
0.1525708704655737
 72
     1
 10
1.282562169008935
 20
0.1525708704655737
 11
1.289745039559756
 21
0.1525708704655737
 72
     1
 10
1.289745039559755
 20
0.1525708704655737
 11
1.295808501713046
 21
0.1525708704655737
 72
     1
 10
1.295808501713046
 20
0.1525708704655737
 11
1.300472703369423
 21
0.1525708704655737
 72
     1
 10
1.300472703369423
 20
0.1525708704655737
 11
1.303457792429505
 21
0.1525708704655737
 72
     1
 10
1.303457792429505
 20
0.1525708704655737
 11
1.304483916793908
 21
0.1525708704655737
 72
     1
 10
1.304483916793908
 20
0.1525708704655737
 11
1.304483916793908
 21
0.1730000737205081
 72
     1
 10
1.304483916793908
 20
0.1730000737205078
 11
1.303457792429505
 21
0.1730000737205078
 72
     1
 10
1.303457792429505
 20
0.1730000737205078
 11
1.300472703369423
 21
0.1730000737205078
 72
     1
 10
1.300472703369423
 20
0.1730000737205078
 11
1.295808501713045
 21
0.1730000737205078
 72
     1
 10
1.295808501713046
 20
0.1730000737205078
 11
1.289745039559754
 21
0.1730000737205078
 72
     1
 10
1.289745039559755
 20
0.1730000737205078
 11
1.282562169008934
 21
0.1730000737205078
 72
     1
 10
1.282562169008935
 20
0.1730000737205078
 11
1.274446458126837
 21
0.1730000737205078
 72
     1
 10
1.274446458126837
 20
0.1730000737205078
 11
1.265771043045975
 21
0.1730000737205078
 72
     1
 10
1.265771043045973
 20
0.1730000737205078
 11
1.256815775865728
 21
0.1730000737205078
 72
     1
 10
1.256815775865729
 20
0.1730000737205078
 11
1.247767224652355
 21
0.1730000737205078
 72
     1
 10
1.247767224652355
 20
0.1730000737205078
 11
1.238998525538365
 21
0.1730000737205078
 72
     1
 10
1.238998525538365
 20
0.1730000737205078
 11
1.230602962556885
 21
0.1730000737205078
 72
     1
 10
1.230602962556885
 20
0.1730000737205078
 11
1.223046955873553
 21
0.1730000737205078
 72
     1
 10
1.223046955873553
 20
0.1730000737205078
 11
1.216517073554625
 21
0.1730000737205078
 72
     1
 10
1.216517073554626
 20
0.1730000737205078
 11
1.211199883666355
 21
0.1730000737205078
 72
     1
 10
1.211199883666355
 20
0.1730000737205078
 11
1.207468522341252
 21
0.1730000737205078
 72
     1
 10
1.207468522341252
 20
0.1730000737205078
 11
1.205602841678701
 21
0.1730000737205078
 72
     1
 10
1.205602841678699
 20
0.1730000737205078
 11
1.205602841678699
 21
0.1754254585818243
 72
     1
 10
1.205602841678699
 20
0.1754254585818245
 11
1.205602841678699
 21
0.1794366720063095
 72
     1
 10
1.205602841678699
 20
0.1794366720063094
 11
1.205602841678699
 21
0.1843807257620694
 72
     1
 10
1.205602841678699
 20
0.1843807257620694
 11
1.205602841678699
 21
0.1898844837165951
 72
     1
 10
1.205602841678699
 20
0.1898844837165951
 11
1.205602841678699
 21
0.1952949576379935
 72
     1
 10
1.205602841678699
 20
0.1952949576379937
 11
1.205602841678699
 21
0.2003322954268815
 72
     1
 10
1.205602841678699
 20
0.2003322954268814
 11
1.205602841678699
 21
0.2042502248182386
 72
     1
 10
1.205602841678699
 20
0.2042502248182386
 11
1.205602841678699
 21
0.206675609679555
 72
     1
 10
1.205602841678699
 20
0.206675609679555
 11
1.207468522341251
 21
0.206675609679555
 72
     1
 10
1.207468522341252
 20
0.206675609679555
 11
1.211293167699483
 21
0.206675609679555
 72
     1
 10
1.211293167699483
 20
0.206675609679555
 11
1.21670364162088
 21
0.206675609679555
 72
     1
 10
1.216703641620879
 20
0.206675609679555
 11
1.223420092006063
 21
0.206675609679555
 72
     1
 10
1.223420092006064
 20
0.206675609679555
 11
1.231255950788778
 21
0.206675609679555
 72
     1
 10
1.231255950788778
 20
0.206675609679555
 11
1.239744797803386
 21
0.206675609679555
 72
     1
 10
1.239744797803385
 20
0.206675609679555
 11
1.248886633049885
 21
0.206675609679555
 72
     1
 10
1.248886633049885
 20
0.206675609679555
 11
1.258121752329513
 21
0.206675609679555
 72
     1
 10
1.258121752329514
 20
0.206675609679555
 11
1.267356871609143
 21
0.206675609679555
 72
     1
 10
1.267356871609142
 20
0.206675609679555
 11
1.276218854756259
 21
0.206675609679555
 72
     1
 10
1.276218854756259
 20
0.206675609679555
 11
1.284521133704611
 21
0.206675609679555
 72
     1
 10
1.284521133704611
 20
0.206675609679555
 11
1.291890572321688
 21
0.206675609679555
 72
     1
 10
1.291890572321688
 20
0.206675609679555
 11
1.298140602541234
 21
0.206675609679555
 72
     1
 10
1.298140602541234
 20
0.206675609679555
 11
1.30289808823074
 21
0.206675609679555
 72
     1
 10
1.30289808823074
 20
0.206675609679555
 11
1.305976461323949
 21
0.206675609679555
 72
     1
 10
1.305976461323949
 20
0.206675609679555
 11
1.30709586972148
 21
0.206675609679555
 72
     1
 10
1.307095869721479
 20
0.206675609679555
 11
1.307095869721479
 21
0.2277578011663822
 72
     1
 10
1.307095869721479
 20
0.2277578011663825
 11
1.304577200827036
 21
0.2277578011663825
 72
     1
 10
1.304577200827037
 20
0.2277578011663825
 11
1.182188549363684
 21
0.2277578011663825
 72
     1
 10
1.182188549363684
 20
0.2277578011663825
 11
1.182188549363684
 21
0.0926825211976832
 72
     1
 10
1.182188549363684
 20
0.0926825211976832
 11
1.311853355410986
 21
0.0926825211976832
 72
     1
 10
1.311853355410985
 20
0.0926825211976832
 11
1.311853355410985
 21
0.113671428651383
 72
     1
 10
1.311853355410985
 20
0.1136714286513832
 11
1.310733947013454
 21
0.1136714286513832
 72
     1
 10
1.310733947013455
 20
0.1136714286513832
 11
1.307469005853991
 21
0.1136714286513832
 72
     1
 10
1.307469005853991
 20
0.1136714286513832
 11
1.302431668065102
 21
0.1136714286513832
 72
     1
 10
1.302431668065103
 20
0.1136714286513832
 11
1.295901785746174
 21
0.1136714286513832
 72
     1
 10
1.295901785746174
 20
0.1136714286513832
 11
1.288159210996586
 21
0.1136714286513832
 72
     1
 10
1.288159210996587
 20
0.1136714286513832
 11
1.279483795915724
 21
0.1136714286513832
 72
     1
 10
1.279483795915723
 20
0.1136714286513832
 11
1.270155392602968
 21
0.1136714286513832
 72
     1
 10
1.270155392602969
 20
0.1136714286513832
 11
1.260547137190832
 21
0.1136714286513832
 72
     1
 10
1.260547137190831
 20
0.1136714286513832
 11
1.250752313712437
 21
0.1136714286513832
 72
     1
 10
1.250752313712437
 20
0.1136714286513832
 11
1.241330626366554
 21
0.1136714286513832
 72
     1
 10
1.241330626366555
 20
0.1136714286513832
 11
1.23237535918631
 21
0.1136714286513832
 72
     1
 10
1.232375359186308
 20
0.1136714286513832
 11
1.224166364271082
 21
0.1136714286513832
 72
     1
 10
1.224166364271083
 20
0.1136714286513832
 11
1.217170061786517
 21
0.1136714286513832
 72
     1
 10
1.217170061786517
 20
0.1136714286513832
 11
1.211479735765737
 21
0.1136714286513832
 72
     1
 10
1.211479735765737
 20
0.1136714286513832
 11
1.20756180637438
 21
0.1136714286513832
 72
     1
 10
1.207561806374379
 20
0.1136714286513832
 11
1.2056028416787
 21
0.1136714286513832
 72
     1
 10
1.205602841678699
 20
0.1136714286513832
 11
1.205602841678699
 21
0.1163766656120825
 72
     1
 10
1.205602841678699
 20
0.1163766656120823
 11
1.205602841678699
 21
0.1209475832353323
 72
     1
 10
1.205602841678699
 20
0.1209475832353325
 11
1.205602841678699
 21
0.1267311932892411
 72
     1
 10
1.205602841678699
 20
0.1267311932892408
 11
1.205602841678699
 21
0.1330745075419143
 72
     1
 10
1.205602841678699
 20
0.1330745075419144
 11
1.205602841678699
 21
0.1395111058277156
 72
     1
 10
1.205602841678699
 20
0.1395111058277158
 11
1.205602841678699
 21
0.1452947158816239
 72
     1
 10
1.205602841678699
 20
0.145294715881624
 11
1.205602841678699
 21
0.1498656335048746
 72
     1
 10
1.205602841678699
 20
0.1498656335048745
 11
1.205602841678699
 21
0.1525708704655738
 97
        0
 75
     0
 76
     1
 98
        1
 10
-0.3743130907707726
 20
-0.2500502867693841
1001
ACAD
1010
0.0
1020
0.0
1030
0.0
  0
HATCH
  5
6A54
330
6A4E
100
AcDbEntity
  8
Kawneer Logo-English
100
AcDbHatch
 10
0.0
 20
0.0
 30
0.0
210
0.0
220
0.0
230
1.0
  2
SOLID
 70
     1
 71
     0
 91
        1
 92
        1
 93
       87
 72
     1
 10
1.049352086190046
 20
0.1525708704655737
 11
1.051217766852597
 21
0.1525708704655737
 72
     1
 10
1.051217766852596
 20
0.1525708704655737
 11
1.054949128177699
 21
0.1525708704655737
 72
     1
 10
1.0549491281777
 20
0.1525708704655737
 11
1.060173034032843
 21
0.1525708704655737
 72
     1
 10
1.060173034032843
 20
0.1525708704655737
 11
1.0667962003849
 21
0.1525708704655737
 72
     1
 10
1.0667962003849
 20
0.1525708704655737
 11
1.074352207068231
 21
0.1525708704655737
 72
     1
 10
1.074352207068232
 20
0.1525708704655737
 11
1.082747770049711
 21
0.1525708704655737
 72
     1
 10
1.082747770049711
 20
0.1525708704655737
 11
1.0915164691637
 21
0.1525708704655737
 72
     1
 10
1.091516469163701
 20
0.1525708704655737
 11
1.100565020377075
 21
0.1525708704655737
 72
     1
 10
1.100565020377073
 20
0.1525708704655737
 11
1.109520287557319
 21
0.1525708704655737
 72
     1
 10
1.10952028755732
 20
0.1525708704655737
 11
1.118195702638183
 21
0.1525708704655737
 72
     1
 10
1.118195702638182
 20
0.1525708704655737
 11
1.126218129487151
 21
0.1525708704655737
 72
     1
 10
1.126218129487152
 20
0.1525708704655737
 11
1.133401000037974
 21
0.1525708704655737
 72
     1
 10
1.133401000037974
 20
0.1525708704655737
 11
1.139557746224391
 21
0.1525708704655737
 72
     1
 10
1.139557746224392
 20
0.1525708704655737
 11
1.14422194788077
 21
0.1525708704655737
 72
     1
 10
1.144221947880769
 20
0.1525708704655737
 11
1.147207036940851
 21
0.1525708704655737
 72
     1
 10
1.147207036940852
 20
0.1525708704655737
 11
1.148233161305255
 21
0.1525708704655737
 72
     1
 10
1.148233161305255
 20
0.1525708704655737
 11
1.148233161305255
 21
0.1730000737205081
 72
     1
 10
1.148233161305255
 20
0.1730000737205078
 11
1.147207036940852
 21
0.1730000737205078
 72
     1
 10
1.147207036940852
 20
0.1730000737205078
 11
1.14422194788077
 21
0.1730000737205078
 72
     1
 10
1.144221947880769
 20
0.1730000737205078
 11
1.139557746224391
 21
0.1730000737205078
 72
     1
 10
1.139557746224392
 20
0.1730000737205078
 11
1.133494284071101
 21
0.1730000737205078
 72
     1
 10
1.133494284071101
 20
0.1730000737205078
 11
1.126218129487152
 21
0.1730000737205078
 72
     1
 10
1.126218129487152
 20
0.1730000737205078
 11
1.118195702638183
 21
0.1730000737205078
 72
     1
 10
1.118195702638182
 20
0.1730000737205078
 11
1.10952028755732
 21
0.1730000737205078
 72
     1
 10
1.10952028755732
 20
0.1730000737205078
 11
1.100565020377074
 21
0.1730000737205078
 72
     1
 10
1.100565020377073
 20
0.1730000737205078
 11
1.0915164691637
 21
0.1730000737205078
 72
     1
 10
1.091516469163701
 20
0.1730000737205078
 11
1.082747770049712
 21
0.1730000737205078
 72
     1
 10
1.082747770049711
 20
0.1730000737205078
 11
1.074352207068231
 21
0.1730000737205078
 72
     1
 10
1.074352207068232
 20
0.1730000737205078
 11
1.0667962003849
 21
0.1730000737205078
 72
     1
 10
1.0667962003849
 20
0.1730000737205078
 11
1.060173034032843
 21
0.1730000737205078
 72
     1
 10
1.060173034032843
 20
0.1730000737205078
 11
1.054949128177701
 21
0.1730000737205078
 72
     1
 10
1.0549491281777
 20
0.1730000737205078
 11
1.051217766852597
 21
0.1730000737205078
 72
     1
 10
1.051217766852596
 20
0.1730000737205078
 11
1.049352086190045
 21
0.1730000737205078
 72
     1
 10
1.049352086190046
 20
0.1730000737205078
 11
1.049352086190046
 21
0.1754254585818243
 72
     1
 10
1.049352086190046
 20
0.1754254585818245
 11
1.049352086190046
 21
0.1794366720063095
 72
     1
 10
1.049352086190046
 20
0.1794366720063094
 11
1.049352086190046
 21
0.1843807257620694
 72
     1
 10
1.049352086190046
 20
0.1843807257620694
 11
1.049352086190046
 21
0.1898844837165951
 72
     1
 10
1.049352086190046
 20
0.1898844837165951
 11
1.049352086190046
 21
0.1952949576379935
 72
     1
 10
1.049352086190046
 20
0.1952949576379937
 11
1.049352086190046
 21
0.2003322954268815
 72
     1
 10
1.049352086190046
 20
0.2003322954268814
 11
1.049352086190046
 21
0.2042502248182386
 72
     1
 10
1.049352086190046
 20
0.2042502248182386
 11
1.049352086190046
 21
0.206675609679555
 72
     1
 10
1.049352086190046
 20
0.206675609679555
 11
1.051217766852597
 21
0.206675609679555
 72
     1
 10
1.051217766852596
 20
0.206675609679555
 11
1.055042412210825
 21
0.206675609679555
 72
     1
 10
1.055042412210827
 20
0.206675609679555
 11
1.060452886132226
 21
0.206675609679555
 72
     1
 10
1.060452886132225
 20
0.206675609679555
 11
1.067169336517409
 21
0.206675609679555
 72
     1
 10
1.06716933651741
 20
0.206675609679555
 11
1.075005195300124
 21
0.206675609679555
 72
     1
 10
1.075005195300123
 20
0.206675609679555
 11
1.083494042314731
 21
0.206675609679555
 72
     1
 10
1.083494042314732
 20
0.206675609679555
 11
1.092542593528105
 21
0.206675609679555
 72
     1
 10
1.092542593528106
 20
0.206675609679555
 11
1.10187099684086
 21
0.206675609679555
 72
     1
 10
1.101870996840861
 20
0.206675609679555
 11
1.111106116120489
 21
0.206675609679555
 72
     1
 10
1.111106116120488
 20
0.206675609679555
 11
1.119968099267605
 21
0.206675609679555
 72
     1
 10
1.119968099267605
 20
0.206675609679555
 11
1.128270378215957
 21
0.206675609679555
 72
     1
 10
1.128270378215957
 20
0.206675609679555
 11
1.135639816833034
 21
0.206675609679555
 72
     1
 10
1.135639816833034
 20
0.206675609679555
 11
1.14188984705258
 21
0.206675609679555
 72
     1
 10
1.141889847052581
 20
0.206675609679555
 11
1.146647332742086
 21
0.206675609679555
 72
     1
 10
1.146647332742086
 20
0.206675609679555
 11
1.149725705835295
 21
0.206675609679555
 72
     1
 10
1.149725705835296
 20
0.206675609679555
 11
1.150845114232827
 21
0.206675609679555
 72
     1
 10
1.150845114232826
 20
0.206675609679555
 11
1.150845114232826
 21
0.2277578011663822
 72
     1
 10
1.150845114232826
 20
0.2277578011663825
 11
1.148326445338383
 21
0.2277578011663825
 72
     1
 10
1.148326445338383
 20
0.2277578011663825
 11
1.025937793875031
 21
0.2277578011663825
 72
     1
 10
1.025937793875032
 20
0.2277578011663825
 11
1.025937793875032
 21
0.0926825211976832
 72
     1
 10
1.025937793875032
 20
0.0926825211976832
 11
1.155602599922332
 21
0.0926825211976832
 72
     1
 10
1.155602599922332
 20
0.0926825211976832
 11
1.155602599922332
 21
0.113671428651383
 72
     1
 10
1.155602599922332
 20
0.1136714286513832
 11
1.154483191524801
 21
0.1136714286513832
 72
     1
 10
1.154483191524799
 20
0.1136714286513832
 11
1.151218250365336
 21
0.1136714286513832
 72
     1
 10
1.151218250365338
 20
0.1136714286513832
 11
1.146180912576449
 21
0.1136714286513832
 72
     1
 10
1.146180912576449
 20
0.1136714286513832
 11
1.13965103025752
 21
0.1136714286513832
 72
     1
 10
1.13965103025752
 20
0.1136714286513832
 11
1.131908455507932
 21
0.1136714286513832
 72
     1
 10
1.131908455507931
 20
0.1136714286513832
 11
1.12323304042707
 21
0.1136714286513832
 72
     1
 10
1.123233040427071
 20
0.1136714286513832
 11
1.113904637114314
 21
0.1136714286513832
 72
     1
 10
1.113904637114314
 20
0.1136714286513832
 11
1.104296381702177
 21
0.1136714286513832
 72
     1
 10
1.104296381702177
 20
0.1136714286513832
 11
1.094501558223783
 21
0.1136714286513832
 72
     1
 10
1.094501558223784
 20
0.1136714286513832
 11
1.085079870877901
 21
0.1136714286513832
 72
     1
 10
1.085079870877899
 20
0.1136714286513832
 11
1.076124603697654
 21
0.1136714286513832
 72
     1
 10
1.076124603697655
 20
0.1136714286513832
 11
1.067915608782429
 21
0.1136714286513832
 72
     1
 10
1.067915608782429
 20
0.1136714286513832
 11
1.060919306297863
 21
0.1136714286513832
 72
     1
 10
1.060919306297863
 20
0.1136714286513832
 11
1.055228980277083
 21
0.1136714286513832
 72
     1
 10
1.055228980277082
 20
0.1136714286513832
 11
1.051311050885725
 21
0.1136714286513832
 72
     1
 10
1.051311050885726
 20
0.1136714286513832
 11
1.049352086190046
 21
0.1136714286513832
 72
     1
 10
1.049352086190046
 20
0.1136714286513832
 11
1.049352086190046
 21
0.1163766656120825
 72
     1
 10
1.049352086190046
 20
0.1163766656120823
 11
1.049352086190046
 21
0.1209475832353323
 72
     1
 10
1.049352086190046
 20
0.1209475832353325
 11
1.049352086190046
 21
0.1267311932892411
 72
     1
 10
1.049352086190046
 20
0.1267311932892408
 11
1.049352086190046
 21
0.1330745075419143
 72
     1
 10
1.049352086190046
 20
0.1330745075419144
 11
1.049352086190046
 21
0.1395111058277156
 72
     1
 10
1.049352086190046
 20
0.1395111058277158
 11
1.049352086190046
 21
0.1452947158816239
 72
     1
 10
1.049352086190046
 20
0.145294715881624
 11
1.049352086190046
 21
0.1498656335048746
 72
     1
 10
1.049352086190046
 20
0.1498656335048745
 11
1.049352086190046
 21
0.1525708704655738
 97
        0
 75
     0
 76
     1
 98
        1
 10
-0.3743130907707726
 20
-0.2500502867693841
1001
ACAD
1010
0.0
1020
0.0
1030
0.0
  0
HATCH
  5
6A55
330
6A4E
100
AcDbEntity
  8
Kawneer Logo-English
100
AcDbHatch
 10
0.0
 20
0.0
 30
0.0
210
0.0
220
0.0
230
1.0
  2
SOLID
 70
     1
 71
     0
 91
        1
 92
        1
 93
       42
 72
     1
 10
0.9725793269260698
 20
0.2277578011663825
 11
0.9725793269260698
 21
0.1354998924032311
 72
     1
 10
0.9725793269260698
 20
0.1354998924032311
 11
0.9729524630585808
 21
0.1264513411898582
 72
     1
 10
0.9729524630585796
 20
0.1264513411898583
 11
0.9729524630585796
 21
0.1255185008585825
 72
     1
 10
0.9729524630585796
 20
0.1255185008585824
 11
0.9731390311248343
 21
0.1238393882622866
 72
     1
 10
0.9731390311248349
 20
0.1238393882622866
 11
0.9717397706279211
 21
0.1254252168254551
 72
     1
 10
0.97173977062792
 20
0.1254252168254551
 11
0.9710867823960281
 21
0.1262647731236031
 72
     1
 10
0.9710867823960294
 20
0.1262647731236031
 11
0.9641837639445897
 21
0.1339140638400625
 72
     1
 10
0.9641837639445899
 20
0.1339140638400624
 11
0.8755639324734129
 21
0.2277578011663823
 72
     1
 10
0.8755639324734115
 20
0.2277578011663825
 11
0.8529891964565429
 21
0.2277578011663825
 72
     1
 10
0.8529891964565434
 20
0.2277578011663825
 11
0.8529891964565434
 21
0.0926825211976832
 72
     1
 10
0.8529891964565434
 20
0.0926825211976832
 11
0.8756572165065401
 21
0.0926825211976832
 72
     1
 10
0.875657216506541
 20
0.0926825211976832
 11
0.875657216506541
 21
0.1927762887435495
 72
     1
 10
0.875657216506541
 20
0.1927762887435495
 11
0.875657216506541
 21
0.1931494248760597
 72
     1
 10
0.875657216506541
 20
0.1931494248760596
 11
0.8755639324734129
 21
0.193988981174208
 72
     1
 10
0.8755639324734115
 20
0.1939889811742079
 11
0.8754706484402849
 21
0.1952949576379935
 72
     1
 10
0.8754706484402859
 20
0.1952949576379937
 11
0.8753773644071577
 21
0.1967875021680344
 72
     1
 10
0.875377364407158
 20
0.1967875021680343
 11
0.8755639324734126
 21
0.1965076500686515
 72
     1
 10
0.8755639324734115
 20
0.1965076500686517
 11
0.8756572165065396
 21
0.1963210820023967
 72
     1
 10
0.875657216506541
 20
0.1963210820023967
 11
0.8764967728046894
 21
0.1954815257042487
 72
     1
 10
0.8764967728046887
 20
0.1954815257042488
 11
0.8781758854009835
 21
0.1936158450416976
 72
     1
 10
0.8781758854009842
 20
0.1936158450416973
 11
0.8797617139641527
 21
0.1917501643791464
 72
     1
 10
0.879761713964152
 20
0.1917501643791466
 11
0.8805079862291723
 21
0.1909106080809982
 72
     1
 10
0.8805079862291727
 20
0.190910608080998
 11
0.8816273946267036
 21
0.1897911996834678
 72
     1
 10
0.8816273946267028
 20
0.1897911996834681
 11
0.884519199653657
 21
0.1867128265902584
 72
     1
 10
0.8845191996536581
 20
0.1867128265902582
 11
0.8891834013100353
 21
0.1818620568676254
 72
     1
 10
0.889183401310035
 20
0.1818620568676252
 11
0.8951535794301982
 21
0.1756120266480794
 72
     1
 10
0.8951535794301985
 20
0.1756120266480794
 11
0.9021498819147662
 21
0.1681493039978751
 72
     1
 10
0.9021498819147669
 20
0.1681493039978752
 11
0.9099857406974814
 21
0.1598470250495227
 72
     1
 10
0.9099857406974813
 20
0.1598470250495225
 11
0.9183813036789613
 21
0.1509850419024051
 72
     1
 10
0.9183813036789612
 20
0.1509850419024052
 11
0.9271500027929521
 21
0.1418432066559046
 72
     1
 10
0.9271500027929509
 20
0.1418432066559046
 11
0.9358254178738118
 21
0.1326080873762767
 72
     1
 10
0.9358254178738132
 20
0.1326080873762767
 11
0.9442209808552931
 21
0.1237461042291589
 72
     1
 10
0.9442209808552931
 20
0.1237461042291589
 11
0.9520568396380092
 21
0.1154438252808068
 72
     1
 10
0.9520568396380092
 20
0.1154438252808068
 11
0.9590531421225751
 21
0.1079811026306025
 72
     1
 10
0.959053142122574
 20
0.1079811026306024
 11
0.9650233202427372
 21
0.101731072411056
 72
     1
 10
0.9650233202427376
 20
0.101731072411056
 11
0.9695942378659868
 21
0.0968803026884232
 72
     1
 10
0.9695942378659871
 20
0.096880302688423
 11
0.9725793269260696
 21
0.0938019295952138
 72
     1
 10
0.9725793269260698
 20
0.093801929595214
 11
0.9736054512904727
 21
0.0926825211976834
 72
     1
 10
0.9736054512904726
 20
0.0926825211976832
 11
0.9952473469760661
 21
0.0926825211976832
 72
     1
 10
0.9952473469760651
 20
0.0926825211976832
 11
0.9952473469760651
 21
0.2277578011663825
 72
     1
 10
0.9952473469760651
 20
0.2277578011663825
 11
0.9927286780816201
 21
0.2277578011663825
 72
     1
 10
0.9927286780816203
 20
0.2277578011663825
 11
0.9725793269260686
 21
0.2277578011663825
 97
        0
 75
     0
 76
     1
 98
        1
 10
-0.3743130907707726
 20
-0.2500502867693841
1001
ACAD
1010
0.0
1020
0.0
1030
0.0
  0
HATCH
  5
6A56
330
6A4E
100
AcDbEntity
  8
Kawneer Logo-English
100
AcDbHatch
 10
0.0
 20
0.0
 30
0.0
210
0.0
220
0.0
230
1.0
  2
SOLID
 70
     1
 71
     0
 91
        2
 92
       16
 93
       32
 72
     1
 10
0.5269615006757409
 20
0.144641727649731
 11
0.5290137494045469
 21
0.148652941074216
 72
     1
 10
0.5290137494045464
 20
0.1486529410742159
 11
0.5322786905640116
 21
0.1551828233931449
 72
     1
 10
0.532278690564012
 20
0.1551828233931452
 11
0.5364764720547521
 21
0.1633918183083696
 72
     1
 10
0.5364764720547526
 20
0.1633918183083696
 11
0.5409541056448736
 21
0.1722538014554874
 72
     1
 10
0.5409541056448726
 20
0.1722538014554873
 11
0.545338455201869
 21
0.1808359325032223
 72
     1
 10
0.5453384552018701
 20
0.1808359325032223
 11
0.5490698165269726
 21
0.1882053711202994
 72
     1
 10
0.549069816526973
 20
0.1882053711202996
 11
0.5515884854214162
 21
0.1932427089091875
 72
     1
 10
0.5515884854214148
 20
0.1932427089091872
 11
0.5526146097858177
 21
0.1952016736048658
 72
     1
 10
0.5526146097858194
 20
0.1952016736048658
 11
0.552801177852074
 21
0.195761377803631
 72
     1
 10
0.5528011778520723
 20
0.1957613778036309
 11
0.5533608820508379
 21
0.1970673542674166
 72
     1
 10
0.5533608820508378
 20
0.1970673542674169
 11
0.5542004383489863
 21
0.1990263189630955
 72
     1
 10
0.5542004383489872
 20
0.1990263189630952
 11
0.5550399946471356
 21
0.2012651357581567
 72
     1
 10
0.5550399946471352
 20
0.2012651357581567
 11
0.5555064148127727
 21
0.2001457273606265
 72
     1
 10
0.5555064148127729
 20
0.2001457273606264
 11
0.5560661190115385
 21
0.198933034929968
 72
     1
 10
0.5560661190115379
 20
0.198933034929968
 11
0.5567191072434298
 21
0.197533774433055
 72
     1
 10
0.5567191072434304
 20
0.197533774433055
 11
0.5574653795084506
 21
0.1959479458698865
 72
     1
 10
0.557465379508451
 20
0.1959479458698865
 11
0.5583049358065995
 21
0.1942688332735902
 72
     1
 10
0.5583049358065986
 20
0.1942688332735903
 11
0.5606370366347874
 21
0.1896046316172126
 72
     1
 10
0.5606370366347871
 20
0.1896046316172126
 11
0.5639952618273804
 21
0.1828881812320289
 72
     1
 10
0.5639952618273814
 20
0.1828881812320287
 11
0.5680064752518651
 21
0.1748657543830587
 72
     1
 10
0.5680064752518637
 20
0.1748657543830589
 11
0.57239082480886
 21
0.1661903393021966
 72
     1
 10
0.5723908248088612
 20
0.1661903393021967
 11
0.5765886062996012
 21
0.1577947763207168
 72
     1
 10
0.5765886062996
 20
0.1577947763207165
 11
0.5803199676247008
 21
0.1503320536705122
 72
     1
 10
0.5803199676247015
 20
0.1503320536705122
 11
0.5831184886185295
 21
0.144641727649731
 72
     1
 10
0.5831184886185295
 20
0.144641727649731
 11
0.5791072751940441
 21
0.144641727649731
 72
     1
 10
0.5791072751940436
 20
0.144641727649731
 11
0.5724841088419869
 21
0.144641727649731
 72
     1
 10
0.5724841088419872
 20
0.144641727649731
 11
0.5641818298936356
 21
0.144641727649731
 72
     1
 10
0.5641818298936352
 20
0.144641727649731
 11
0.5550399946471351
 21
0.144641727649731
 72
     1
 10
0.5550399946471352
 20
0.144641727649731
 11
0.5458981594006351
 21
0.144641727649731
 72
     1
 10
0.5458981594006352
 20
0.144641727649731
 11
0.5375958804522815
 21
0.144641727649731
 72
     1
 10
0.5375958804522814
 20
0.144641727649731
 11
0.5310659981333528
 21
0.144641727649731
 72
     1
 10
0.5310659981333524
 20
0.144641727649731
 11
0.5269615006757405
 21
0.144641727649731
 97
        0
 92
        1
 93
      141
 72
     1
 10
0.5656743744236757
 20
0.2277578011663825
 11
0.544405614870593
 21
0.2277578011663825
 72
     1
 10
0.544405614870593
 20
0.2277578011663825
 11
0.4748157261574382
 21
0.0934287934627039
 72
     1
 10
0.4748157261574378
 20
0.0934287934627039
 11
0.4729500454948865
 21
0.0955743262246376
 72
     1
 10
0.4729500454948874
 20
0.0955743262246376
 11
0.4699649564348049
 21
0.0991191194834847
 72
     1
 10
0.4699649564348043
 20
0.0991191194834847
 11
0.4661403110765752
 21
0.1036900371067346
 72
     1
 10
0.4661403110765754
 20
0.1036900371067347
 11
0.4615693934533244
 21
0.1091005110281331
 72
     1
 10
0.461569393453325
 20
0.109100511028133
 11
0.456345487598182
 21
0.1152572572145517
 72
     1
 10
0.4563454875981812
 20
0.1152572572145516
 11
0.4506551615774008
 21
0.1219737075997353
 72
     1
 10
0.4506551615774015
 20
0.1219737075997354
 11
0.4447782674903648
 21
0.1290632941174296
 72
     1
 10
0.4447782674903636
 20
0.1290632941174296
 11
0.4387148053370722
 21
0.1362461646682511
 72
     1
 10
0.4387148053370727
 20
0.1362461646682512
 11
0.4326513431837832
 21
0.1433357511859454
 72
     1
 10
0.4326513431837844
 20
0.1433357511859453
 11
0.4268677331298759
 21
0.1502387696373844
 72
     1
 10
0.4268677331298756
 20
0.1502387696373844
 11
0.4214572592084763
 21
0.1566753679231857
 72
     1
 10
0.4214572592084754
 20
0.1566753679231858
 11
0.4165132054527153
 21
0.1625522620102216
 72
     1
 10
0.4165132054527163
 20
0.1625522620102216
 11
0.4123154239619763
 21
0.1674963157659821
 72
     1
 10
0.4123154239619753
 20
0.1674963157659822
 11
0.4088639147362555
 21
0.1715075291904667
 72
     1
 10
0.4088639147362568
 20
0.1715075291904669
 11
0.4065318139080681
 21
0.1743993342174211
 72
     1
 10
0.4065318139080665
 20
0.1743993342174211
 11
0.405319121477409
 21
0.1757985947143345
 72
     1
 10
0.4053191214774104
 20
0.1757985947143345
 11
0.4067183819743243
 21
0.1769180031118651
 72
     1
 10
0.4067183819743235
 20
0.1769180031118651
 11
0.4094236189350213
 21
0.1788769678075437
 72
     1
 10
0.4094236189350218
 20
0.1788769678075437
 11
0.4132482642932526
 21
0.1816754888013702
 72
     1
 10
0.4132482642932525
 20
0.1816754888013703
 11
0.4179124659496298
 21
0.1852202820602174
 72
     1
 10
0.417912465949629
 20
0.1852202820602174
 11
0.4232296558379
 21
0.189138211451575
 72
     1
 10
0.4232296558379001
 20
0.1891382114515751
 11
0.4291065499249351
 21
0.1935225610085696
 72
     1
 10
0.4291065499249367
 20
0.1935225610085698
 11
0.4352632961113562
 21
0.1981867626649482
 72
     1
 10
0.4352632961113554
 20
0.1981867626649479
 11
0.4416066103640296
 21
0.2028509643213252
 72
     1
 10
0.4416066103640293
 20
0.2028509643213252
 11
0.4479499246167016
 21
0.2076084500108307
 72
     1
 10
0.4479499246167018
 20
0.2076084500108307
 11
0.4540133867699932
 21
0.2120860836009535
 72
     1
 10
0.4540133867699927
 20
0.2120860836009535
 11
0.4596104287576467
 21
0.2162838650916932
 72
     1
 10
0.4596104287576468
 20
0.216283865091693
 11
0.4646477665465351
 21
0.2200152264167952
 72
     1
 10
0.464647766546535
 20
0.2200152264167951
 11
0.4689388320704013
 21
0.223186883543132
 72
     1
 10
0.4689388320704016
 20
0.2231868835431323
 11
0.4721104891967386
 21
0.2256122684044488
 72
     1
 10
0.4721104891967376
 20
0.2256122684044488
 11
0.4742560219586717
 21
0.2271980969676172
 72
     1
 10
0.4742560219586727
 20
0.2271980969676173
 11
0.475002294223693
 21
0.2277578011663825
 72
     1
 10
0.4750022942236929
 20
0.2277578011663825
 11
0.4674462875403612
 21
0.2277578011663825
 72
     1
 10
0.4674462875403611
 20
0.2277578011663825
 11
0.4395543616352215
 21
0.2277578011663825
 72
     1
 10
0.439554361635222
 20
0.2277578011663825
 11
0.4386215213039473
 21
0.2270115289013622
 72
     1
 10
0.4386215213039466
 20
0.2270115289013622
 11
0.4359162843432469
 21
0.2250525642056836
 72
     1
 10
0.4359162843432465
 20
0.2250525642056836
 11
0.4318117868856346
 21
0.2220674751456017
 72
     1
 10
0.4318117868856351
 20
0.2220674751456017
 11
0.4264013129642376
 21
0.2180562617211167
 72
     1
 10
0.4264013129642379
 20
0.2180562617211168
 11
0.4200579987115638
 21
0.2132987760316117
 72
     1
 10
0.4200579987115641
 20
0.2132987760316114
 11
0.4128751281607416
 21
0.2079815861433408
 72
     1
 10
0.4128751281607408
 20
0.2079815861433408
 11
0.4051325534111546
 21
0.20229126012256
 72
     1
 10
0.4051325534111552
 20
0.20229126012256
 11
0.397016842529058
 21
0.1963210820023964
 72
     1
 10
0.3970168425290583
 20
0.1963210820023967
 11
0.3889011316469611
 21
0.1903509038822331
 72
     1
 10
0.3889011316469611
 20
0.190350903882233
 11
0.3808787047979902
 21
0.1844740097951972
 72
     1
 10
0.3808787047979898
 20
0.1844740097951974
 11
0.3733226981146581
 21
0.1787836837744166
 72
     1
 10
0.373322698114658
 20
0.1787836837744166
 11
0.3663263956300919
 21
0.173653061952401
 72
     1
 10
0.3663263956300931
 20
0.173653061952401
 11
0.3601696494436735
 21
0.169082144329151
 72
     1
 10
0.3601696494436726
 20
0.1690821443291508
 11
0.3550390276216579
 21
0.1653507830040483
 72
     1
 10
0.3550390276216584
 20
0.1653507830040482
 11
0.3513076662965558
 21
0.1625522620102218
 72
     1
 10
0.3513076662965551
 20
0.1625522620102216
 11
0.3490688495014928
 21
0.1609664334470531
 72
     1
 10
0.3490688495014926
 20
0.1609664334470531
 11
0.3490688495014926
 21
0.1631119662089868
 72
     1
 10
0.3490688495014926
 20
0.1631119662089868
 11
0.3490688495014926
 21
0.1662836233353237
 72
     1
 10
0.3490688495014926
 20
0.1662836233353238
 11
0.3490688495014926
 21
0.1702948367598088
 72
     1
 10
0.3490688495014926
 20
0.1702948367598088
 11
0.3490688495014926
 21
0.1749590384161865
 72
     1
 10
0.3490688495014926
 20
0.1749590384161865
 11
0.3490688495014926
 21
0.1801829442713294
 72
     1
 10
0.3490688495014926
 20
0.1801829442713296
 11
0.3490688495014926
 21
0.185779986258983
 72
     1
 10
0.3490688495014926
 20
0.1857799862589829
 11
0.3490688495014926
 21
0.1916568803460187
 72
     1
 10
0.3490688495014926
 20
0.1916568803460186
 11
0.3490688495014926
 21
0.1975337744330549
 72
     1
 10
0.3490688495014926
 20
0.197533774433055
 11
0.3490688495014926
 21
0.2033173844869632
 72
     1
 10
0.3490688495014926
 20
0.2033173844869631
 11
0.3490688495014926
 21
0.2088211424414888
 72
     1
 10
0.3490688495014926
 20
0.2088211424414888
 11
0.3490688495014926
 21
0.2139517642635044
 72
     1
 10
0.3490688495014926
 20
0.2139517642635044
 11
0.3490688495014926
 21
0.2185226818867544
 72
     1
 10
0.3490688495014926
 20
0.2185226818867545
 11
0.3490688495014926
 21
0.2222540432118567
 72
     1
 10
0.3490688495014926
 20
0.2222540432118567
 11
0.3490688495014926
 21
0.2252391322719387
 72
     1
 10
0.3490688495014926
 20
0.2252391322719387
 11
0.3490688495014926
 21
0.2271048129344895
 72
     1
 10
0.3490688495014926
 20
0.2271048129344895
 11
0.3490688495014926
 21
0.2277578011663825
 72
     1
 10
0.3490688495014926
 20
0.2277578011663825
 11
0.3258411252527322
 21
0.2277578011663825
 72
     1
 10
0.3258411252527336
 20
0.2277578011663825
 11
0.3258411252527336
 21
0.0926825211976832
 72
     1
 10
0.3258411252527336
 20
0.0926825211976832
 11
0.3486957133689848
 21
0.0926825211976832
 72
     1
 10
0.3486957133689845
 20
0.0926825211976832
 11
0.3486957133689845
 21
0.0943616337939795
 72
     1
 10
0.3486957133689845
 20
0.0943616337939795
 11
0.3486957133689845
 21
0.0988392673841017
 72
     1
 10
0.3486957133689845
 20
0.0988392673841017
 11
0.3486957133689845
 21
0.1051825816367752
 72
     1
 10
0.3486957133689845
 20
0.1051825816367753
 11
0.3486957133689845
 21
0.1125520202538523
 72
     1
 10
0.3486957133689845
 20
0.1125520202538524
 11
0.3486957133689845
 21
0.1200147429040567
 72
     1
 10
0.3486957133689845
 20
0.1200147429040567
 11
0.3486957133689845
 21
0.1267311932892408
 72
     1
 10
0.3486957133689845
 20
0.1267311932892408
 11
0.3486957133689845
 21
0.1317685310781287
 72
     1
 10
0.3486957133689845
 20
0.1317685310781289
 11
0.3486957133689845
 21
0.1342871999725727
 72
     1
 10
0.3486957133689845
 20
0.1342871999725725
 11
0.3507479620977905
 21
0.1356864604694859
 72
     1
 10
0.35074796209779
 20
0.1356864604694859
 11
0.3548524595554018
 21
0.1387648335626952
 72
     1
 10
0.3548524595554015
 20
0.1387648335626952
 11
0.3605427855761835
 21
0.1428693310203079
 72
     1
 10
0.3605427855761842
 20
0.1428693310203079
 11
0.3668860998288565
 21
0.1476268167098129
 72
     1
 10
0.3668860998288568
 20
0.1476268167098129
 11
0.373322698114659
 21
0.1522910183661906
 72
     1
 10
0.373322698114658
 20
0.1522910183661908
 11
0.3791995922016947
 21
0.1565820838900582
 72
     1
 10
0.3791995922016946
 20
0.1565820838900582
 11
0.3836772257918156
 21
0.1599403090826502
 72
     1
 10
0.3836772257918159
 20
0.1599403090826503
 11
0.386195894686261
 21
0.1618059897452011
 72
     1
 10
0.3861958946862609
 20
0.1618059897452011
 11
0.3873153030837921
 21
0.1604067292482882
 72
     1
 10
0.3873153030837915
 20
0.1604067292482878
 11
0.3894608358457238
 21
0.1577947763207163
 72
     1
 10
0.3894608358457248
 20
0.1577947763207165
 11
0.3925392089389353
 21
0.1541566990287417
 72
     1
 10
0.3925392089389348
 20
0.1541566990287417
 11
0.396457138330292
 21
0.149492497372364
 72
     1
 10
0.3964571383302933
 20
0.149492497372364
 11
0.4009347719204161
 21
0.1442685915172211
 72
     1
 10
0.4009347719204146
 20
0.1442685915172209
 11
0.4057855416430466
 21
0.138391697430185
 72
     1
 10
0.4057855416430463
 20
0.1383916974301853
 11
0.4109161634650628
 21
0.1322349512437666
 72
     1
 10
0.410916163465064
 20
0.1322349512437666
 11
0.4162333533533335
 21
0.1259849210242201
 72
     1
 10
0.4162333533533334
 20
0.1259849210242201
 11
0.4215505432416044
 21
0.1196416067715466
 72
     1
 10
0.4215505432416045
 20
0.1196416067715466
 11
0.4265878810304927
 21
0.113671428651383
 72
     1
 10
0.4265878810304931
 20
0.1136714286513832
 11
0.4312520826868704
 21
0.1079811026306024
 72
     1
 10
0.4312520826868696
 20
0.1079811026306024
 11
0.4355431482107378
 21
0.1029437648417141
 72
     1
 10
0.435543148210738
 20
0.1029437648417139
 11
0.4390879414695842
 21
0.0987459833509739
 72
     1
 10
0.4390879414695843
 20
0.0987459833509741
 11
0.4417931784302841
 21
0.0954810421915098
 72
     1
 10
0.4417931784302845
 20
0.0954810421915096
 11
0.4435655750597076
 21
0.0934287934627037
 72
     1
 10
0.4435655750597074
 20
0.0934287934627039
 11
0.4442185632915993
 21
0.0926825211976832
 72
     1
 10
0.4442185632915985
 20
0.0926825211976832
 11
0.4743493059918004
 21
0.0926825211976832
 72
     1
 10
0.4743493059918001
 20
0.0926825211976832
 11
0.4753754303562029
 21
0.0926825211976832
 72
     1
 10
0.4753754303562033
 20
0.0926825211976832
 11
0.5008419714000258
 21
0.0926825211976832
 72
     1
 10
0.5008419714000265
 20
0.0926825211976832
 11
0.5014949596319184
 21
0.0939884976614689
 72
     1
 10
0.501494959631919
 20
0.0939884976614688
 11
0.5031740722282155
 21
0.0973467228540609
 72
     1
 10
0.503174072228215
 20
0.0973467228540612
 11
0.5055061730564038
 21
0.1021042085435666
 72
     1
 10
0.505506173056403
 20
0.1021042085435665
 11
0.5083046940502291
 21
0.1077012505312196
 72
     1
 10
0.5083046940502292
 20
0.1077012505312194
 11
0.5111032150440553
 21
0.1134848605851279
 72
     1
 10
0.5111032150440549
 20
0.1134848605851281
 11
0.5137151679716264
 21
0.1186154824071433
 72
     1
 10
0.5137151679716277
 20
0.1186154824071433
 11
0.5156741326673071
 21
0.1226266958316283
 72
     1
 10
0.5156741326673076
 20
0.122626695831628
 11
0.5167002570317104
 21
0.1247722285935621
 72
     1
 10
0.5167002570317103
 20
0.1247722285935622
 11
0.5180062334954961
 21
0.1247722285935622
 72
     1
 10
0.5180062334954961
 20
0.1247722285935622
 11
0.5207114704561957
 21
0.1247722285935622
 72
     1
 10
0.5207114704561944
 20
0.1247722285935622
 11
0.5246293998475517
 21
0.1247722285935622
 72
     1
 10
0.5246293998475525
 20
0.1247722285935622
 11
0.5295734536033125
 21
0.1247722285935622
 72
     1
 10
0.5295734536033115
 20
0.1247722285935622
 11
0.5352637796240919
 21
0.1247722285935622
 72
     1
 10
0.5352637796240929
 20
0.1247722285935622
 11
0.5415138098436386
 21
0.1247722285935622
 72
     1
 10
0.5415138098436394
 20
0.1247722285935622
 11
0.5482302602288245
 21
0.1247722285935622
 72
     1
 10
0.5482302602288236
 20
0.1247722285935622
 11
0.5551332786802616
 21
0.1247722285935622
 72
     1
 10
0.5551332786802608
 20
0.1247722285935622
 11
0.5620362971317004
 21
0.1247722285935622
 72
     1
 10
0.5620362971317015
 20
0.1247722285935622
 11
0.5687527475168847
 21
0.1247722285935622
 72
     1
 10
0.5687527475168839
 20
0.1247722285935622
 11
0.5750027777364317
 21
0.1247722285935622
 72
     1
 10
0.5750027777364322
 20
0.1247722285935622
 11
0.5806931037572126
 21
0.1247722285935622
 72
     1
 10
0.5806931037572119
 20
0.1247722285935622
 11
0.585637157512972
 21
0.1247722285935622
 72
     1
 10
0.5856371575129727
 20
0.1247722285935622
 11
0.5895550869043299
 21
0.1247722285935622
 72
     1
 10
0.5895550869043289
 20
0.1247722285935622
 11
0.5922603238650286
 21
0.1247722285935622
 72
     1
 10
0.5922603238650291
 20
0.1247722285935622
 11
0.5935663003288148
 21
0.1247722285935622
 72
     1
 10
0.5935663003288148
 20
0.1247722285935622
 11
0.5945924246932176
 21
0.1226266958316281
 72
     1
 10
0.5945924246932175
 20
0.122626695831628
 11
0.5965513893888953
 21
0.1186154824071431
 72
     1
 10
0.5965513893888957
 20
0.1186154824071433
 11
0.5991633423164672
 21
0.1134848605851281
 72
     1
 10
0.5991633423164667
 20
0.1134848605851281
 11
0.6019618633102946
 21
0.1077012505312196
 72
     1
 10
0.6019618633102959
 20
0.1077012505312194
 11
0.604760384304122
 21
0.1021042085435664
 72
     1
 10
0.6047603843041221
 20
0.1021042085435665
 11
0.6070924851323109
 21
0.0973467228540611
 72
     1
 10
0.6070924851323101
 20
0.0973467228540612
 11
0.6087715977286067
 21
0.0939884976614691
 72
     1
 10
0.6087715977286062
 20
0.0939884976614688
 11
0.609424585960498
 21
0.0926825211976832
 72
     1
 10
0.6094245859604986
 20
0.0926825211976832
 11
0.6363836715343633
 21
0.0926825211976832
 72
     1
 10
0.6363836715343641
 20
0.0926825211976832
 11
0.5671669189537184
 21
0.2277578011663825
 72
     1
 10
0.5671669189537179
 20
0.2277578011663825
 11
0.5656743744236758
 21
0.2277578011663825
 97
        0
 75
     0
 76
     1
 98
        1
 10
-0.3743130907707726
 20
-0.2500502867693841
1001
ACAD
1010
0.0
1020
0.0
1030
0.0
  0
HATCH
  5
6A57
330
6A4E
100
AcDbEntity
  8
Kawneer Logo-English
100
AcDbHatch
 10
0.0
 20
0.0
 30
0.0
210
0.0
220
0.0
230
1.0
  2
SOLID
 70
     1
 71
     0
 91
        1
 92
        1
 93
       69
 72
     1
 10
0.8092389849197205
 20
0.2277578011663825
 11
0.778921674153266
 21
0.1309289747799811
 72
     1
 10
0.778921674153267
 20
0.1309289747799809
 11
0.7781754018882468
 21
0.1287834420180468
 72
     1
 10
0.7781754018882468
 20
0.1287834420180467
 11
0.7776156976894812
 21
0.1270110453886236
 72
     1
 10
0.7776156976894813
 20
0.1270110453886237
 11
0.7771492775238438
 21
0.1253319327923275
 72
     1
 10
0.7771492775238436
 20
0.1253319327923274
 11
0.7766828573582045
 21
0.1238393882622867
 72
     1
 10
0.7766828573582046
 20
0.1238393882622866
 11
0.7764030052588217
 21
0.1248655126266895
 72
     1
 10
0.776403005258822
 20
0.1248655126266896
 11
0.7761231531594392
 21
0.1259849210242202
 72
     1
 10
0.7761231531594391
 20
0.1259849210242201
 11
0.7759365850931844
 21
0.1268244773223681
 72
     1
 10
0.7759365850931843
 20
0.1268244773223682
 11
0.7758433010600562
 21
0.1271976134548783
 72
     1
 10
0.7758433010600552
 20
0.1271976134548783
 11
0.7755634489606744
 21
0.1280371697530267
 72
     1
 10
0.775563448960674
 20
0.1280371697530267
 11
0.7750970287950349
 21
0.1291565781505569
 72
     1
 10
0.7750970287950363
 20
0.1291565781505568
 11
0.773977620397507
 21
0.1323282352768938
 72
     1
 10
0.7739776203975062
 20
0.1323282352768939
 11
0.7721119397349549
 21
0.1372722890326544
 72
     1
 10
0.7721119397349554
 20
0.1372722890326546
 11
0.7697798389067666
 21
0.1436156032853281
 72
     1
 10
0.769779838906767
 20
0.1436156032853281
 11
0.7670746019460673
 21
0.1511716099686602
 72
     1
 10
0.7670746019460668
 20
0.15117160996866
 11
0.7639962288528581
 21
0.1595671729501399
 72
     1
 10
0.7639962288528582
 20
0.15956717295014
 11
0.7606380036602665
 21
0.1686157241635125
 72
     1
 10
0.7606380036602652
 20
0.1686157241635125
 11
0.7572797784676718
 21
0.1778508434431408
 72
     1
 10
0.7572797784676726
 20
0.1778508434431408
 11
0.753921553275081
 21
0.187179246755896
 72
     1
 10
0.7539215532750814
 20
0.1871792467558961
 11
0.7505633280824898
 21
0.1962277979692689
 72
     1
 10
0.7505633280824902
 20
0.1962277979692689
 11
0.7474849549892814
 21
0.2046233609507488
 72
     1
 10
0.7474849549892797
 20
0.2046233609507488
 11
0.74477971802858
 21
0.2121793676340809
 72
     1
 10
0.7447797180285814
 20
0.2121793676340809
 11
0.7424476172003926
 21
0.2185226818867544
 72
     1
 10
0.7424476172003929
 20
0.2185226818867545
 11
0.7405819365378416
 21
0.2234667356425151
 72
     1
 10
0.7405819365378408
 20
0.2234667356425151
 11
0.7394625281403098
 21
0.2266383927688516
 72
     1
 10
0.7394625281403103
 20
0.2266383927688516
 11
0.7390893920078009
 21
0.2277578011663822
 72
     1
 10
0.7390893920078004
 20
0.2277578011663825
 11
0.7191266089185034
 21
0.2277578011663825
 72
     1
 10
0.7191266089185029
 20
0.2277578011663825
 11
0.6843316645619254
 21
0.1336342117406798
 72
     1
 10
0.6843316645619267
 20
0.1336342117406795
 11
0.6832122561643957
 21
0.130649122680598
 72
     1
 10
0.6832122561643961
 20
0.1306491226805981
 11
0.6823726998662476
 21
0.1282237378192816
 72
     1
 10
0.6823726998662468
 20
0.1282237378192818
 11
0.6817197116343549
 21
0.1260782050573481
 72
     1
 10
0.6817197116343552
 20
0.1260782050573481
 11
0.6811600074355896
 21
0.1241192403616695
 72
     1
 10
0.6811600074355884
 20
0.1241192403616695
 11
0.6808801553362055
 21
0.1250520806929446
 72
     1
 10
0.6808801553362059
 20
0.1250520806929445
 11
0.6805070192036949
 21
0.1261714890904751
 72
     1
 10
0.680507019203696
 20
0.1261714890904752
 11
0.6802271671043131
 21
0.1272908974880058
 72
     1
 10
0.680227167104313
 20
0.1272908974880061
 11
0.6798540309718037
 21
0.1286901579849195
 72
     1
 10
0.6798540309718031
 20
0.1286901579849194
 11
0.6794808948392922
 21
0.12980956638245
 72
     1
 10
0.6794808948392932
 20
0.1298095663824503
 11
0.6784547704748904
 21
0.1328879394756595
 72
     1
 10
0.67845477047489
 20
0.1328879394756595
 11
0.6769622259448497
 21
0.1378319932314196
 72
     1
 10
0.6769622259448496
 20
0.1378319932314196
 11
0.6750032612491701
 21
0.1441753074840938
 72
     1
 10
0.6750032612491697
 20
0.1441753074840937
 11
0.6725778763878547
 21
0.1516380301342981
 72
     1
 10
0.6725778763878556
 20
0.1516380301342981
 11
0.6699659234602841
 21
0.160033593115778
 72
     1
 10
0.6699659234602829
 20
0.160033593115778
 11
0.6671674024664549
 21
0.168988860296023
 72
     1
 10
0.6671674024664554
 20
0.168988860296023
 11
0.6642755974395012
 21
0.1782239795756509
 72
     1
 10
0.6642755974395019
 20
0.178223979575651
 11
0.6613837924125477
 21
0.1874590988552789
 72
     1
 10
0.6613837924125466
 20
0.1874590988552789
 11
0.6585852714187205
 21
0.1964143660355239
 72
     1
 10
0.6585852714187204
 20
0.1964143660355237
 11
0.6559733184911489
 21
0.2047166449838762
 72
     1
 10
0.6559733184911494
 20
0.2047166449838765
 11
0.6536412176629606
 21
0.2122726516672082
 72
     1
 10
0.6536412176629614
 20
0.2122726516672082
 11
0.6515889689341538
 21
0.2186159659198823
 72
     1
 10
0.6515889689341537
 20
0.2186159659198821
 11
0.6500964244041133
 21
0.2234667356425149
 72
     1
 10
0.6500964244041132
 20
0.2234667356425151
 11
0.6490703000397104
 21
0.2266383927688516
 72
     1
 10
0.6490703000397105
 20
0.2266383927688516
 11
0.6487904479403276
 21
0.2277578011663822
 72
     1
 10
0.648790447940328
 20
0.2277578011663825
 11
0.6237903270621445
 21
0.2277578011663825
 72
     1
 10
0.6237903270621437
 20
0.2277578011663825
 11
0.6676338226320932
 21
0.0926825211976832
 72
     1
 10
0.6676338226320926
 20
0.0926825211976832
 11
0.6922608073777669
 21
0.0926825211976832
 72
     1
 10
0.6922608073777666
 20
0.0926825211976832
 11
0.726029627369941
 21
0.1855001341596003
 72
     1
 10
0.7260296273699423
 20
0.1855001341596003
 11
0.7269624677012189
 21
0.1882986551534267
 72
     1
 10
0.7269624677012177
 20
0.1882986551534266
 11
0.7278020239993661
 21
0.1906307559816158
 72
     1
 10
0.727802023999367
 20
0.1906307559816159
 11
0.7284550122312589
 21
0.1927762887435496
 72
     1
 10
0.7284550122312581
 20
0.1927762887435495
 11
0.7290147164300237
 21
0.1947352534392281
 72
     1
 10
0.7290147164300232
 20
0.1947352534392282
 11
0.7298542727281716
 21
0.192216584544784
 72
     1
 10
0.729854272728173
 20
0.1922165845447839
 11
0.7306938290263214
 21
0.1894180635509575
 72
     1
 10
0.7306938290263206
 20
0.1894180635509575
 11
0.7318132374238499
 21
0.1863396904577483
 72
     1
 10
0.7318132374238511
 20
0.1863396904577481
 11
0.7331192138876387
 21
0.1827016131657736
 72
     1
 10
0.7331192138876382
 20
0.1827016131657737
 11
0.7654887733828987
 21
0.0926825211976834
 72
     1
 10
0.7654887733828986
 20
0.0926825211976832
 11
0.7895560539298075
 21
0.0926825211976832
 72
     1
 10
0.7895560539298075
 20
0.0926825211976832
 11
0.8341458217647785
 21
0.2277578011663825
 72
     1
 10
0.8341458217647783
 20
0.2277578011663825
 11
0.830601028505932
 21
0.2277578011663825
 72
     1
 10
0.8306010285059324
 20
0.2277578011663825
 11
0.8092389849197216
 21
0.2277578011663825
 97
        0
 75
     0
 76
     1
 98
        1
 10
-0.3743130907707726
 20
-0.2500502867693841
1001
ACAD
1010
0.0
1020
0.0
1030
0.0
  0
ENDBLK
  5
6A5B
330
6A4E
100
AcDbEntity
  8
0
100
AcDbBlockEnd
  0
ENDSEC
  0
SECTION
  2
ENTITIES
  0
MTEXT
  5
20C5
330
17
100
AcDbEntity
  8
0
 62
     2
100
AcDbMText
 10
37.65584830526047
 20
1.036186584753735
 30
0.0
 40
0.375
 41
9.6875
 71
     2
 72
     5
  1
DETAIL SCALE: 1" = 1"
 73
     1
 44
1.0
1001
ACAD
1000
MTEXTBEGIN
1070
    73
1070
     1
1070
    44
1040
1.0
1070
    74
1070
     0
1000
MTEXTEND
  0
LINE
  5
20CE
330
17
100
AcDbEntity
  8
0
100
AcDbLine
 10
0.0
 20
0.0
 30
0.0
 11
0.0
 21
44.85032029827489
 31
0.0
  0
LINE
  5
20CF
330
17
100
AcDbEntity
  8
0
100
AcDbLine
 10
0.0
 20
0.0
 30
0.0
 11
76.2093472649046
 21
0.0
 31
0.0
  0
MTEXT
  5
2E0C
102
{ACAD_XDICTIONARY
360
6B26
102
}
330
17
100
AcDbEntity
  8
0
 62
     2
100
AcDbMText
 10
38.0085941965786
 20
3.969546102168493
 30
0.0
 40
0.5
 41
24.81983313717808
 71
     2
 72
     5
  1
1600 WALL SYSTEM™2 CURTAIN WALL\P6-3/4" DEEP (1/4" INFILL)\PSSG WITH GLASSvent™ WINDOWS FOR CURTAIN WALL{\C256; }DETAILS
 73
     1
 44
1.0
1001
ACAD
1000
MTEXTBEGIN
1070
    73
1070
     1
1070
    44
1040
1.0
1070
    74
1070
     0
1000
MTEXTEND
  0
TEXT
  5
477E
330
17
100
AcDbEntity
  8
0
 62
     2
100
AcDbText
 10
25.38353564395867
 20
27.91702006497815
 30
0.0
 40
0.187
  1
PROJECT-OUT SILL
100
AcDbText
  0
LINE
  5
47B2
330
17
100
AcDbEntity
  8
R-SWTS-DET2
100
AcDbLine
 10
22.25280206678993
 20
25.95062731591365
 30
0.0
 11
22.4918773563449
 21
25.95062731591365
 31
0.0
  0
LINE
  5
47EB
330
17
100
AcDbEntity
  8
R-SWTS-DET2
100
AcDbLine
 10
22.4918773563449
 20
26.55494564385776
 30
0.0
 11
21.96280206678993
 21
26.49062731591364
 31
0.0
  0
LINE
  5
47EC
330
17
100
AcDbEntity
  8
R-SWTS-DET2
100
AcDbLine
 10
21.95902252433028
 20
26.49062731591364
 30
0.0
 11
21.95902252433027
 21
26.43062731591364
 31
0.0
  0
LINE
  5
47ED
330
17
100
AcDbEntity
  8
R-SWTS-DET2
100
AcDbLine
 10
21.96280206678992
 20
26.43062731591364
 30
0.0
 11
22.07843292450327
 21
26.43062731591364
 31
0.0
  0
LINE
  5
47EE
330
17
100
AcDbEntity
  8
R-SWTS-DET2
100
AcDbLine
 10
21.96280206678993
 20
26.49062731591364
 30
0.0
 11
21.96280206678992
 21
26.43062731591364
 31
0.0
  0
TEXT
  5
4801
330
17
100
AcDbEntity
  8
0
  6
Continuous
 62
     7
100
AcDbText
 10
8.952173234541547
 20
11.57720939113894
 30
0.0
 40
0.375
  1
GLASSvent™ WINDOWS
 72
     1
 11
11.97954363017592
 21
11.57720939113894
 31
0.0
100
AcDbText
  0
TEXT
  5
4802
330
17
100
AcDbEntity
  8
0
  6
Continuous
 62
     7
100
AcDbText
 10
10.11694983754291
 20
10.66112051201496
 30
0.0
 40
0.375
  1
PROJECT-OUT
 72
     1
 11
11.97954363017592
 21
10.66112051201496
 31
0.0
100
AcDbText
  0
LINE
  5
4864
330
17
100
AcDbEntity
  8
R-SWTS-DET2
100
AcDbLine
 10
22.49526574538697
 20
35.81215781887298
 30
0.0
 11
21.95716946238484
 21
35.86358414418103
 31
0.0
  0
LINE
  5
486E
330
17
100
AcDbEntity
  8
R-SWTS-DET2
100
AcDbLine
 10
21.95716946238484
 20
35.92322293005229
 30
0.0
 11
22.07657986255783
 21
35.92322293005229
 31
0.0
  0
LINE
  5
48A2
330
17
100
AcDbEntity
  8
R-SWTS-DET1
100
AcDbLine
 10
24.79821397020365
 20
35.91814015978822
 30
0.0
 11
24.88821397020365
 21
35.91814015978822
 31
0.0
  0
LWPOLYLINE
  5
4CC7
330
17
100
AcDbEntity
  8
R-SWTS-DET2
100
AcDbPolyline
 90
       19
 70
     1
 43
0.0
 10
22.7315382085073
 20
26.47186709937599
 42
0.7807764064043922
 10
22.72683232615436
 20
26.49069062878775
 10
22.71683232615436
 20
26.49069062878775
 10
22.71683232615436
 20
26.56069062878775
 10
22.77333232615436
 20
26.56069062878775
 42
0.4142135623731242
 10
22.73333232615437
 20
26.60069062878775
 10
22.71033232615436
 20
26.60069062878775
 42
-0.3976588195991941
 10
22.68537271482597
 20
26.6242701350935
 10
22.66930809295141
 20
26.85954292500428
 42
0.9447064698048286
 10
22.63935655935732
 20
26.85954292500428
 10
22.62329193748276
 20
26.6242701350935
 42
-0.3976588195991942
 10
22.59833232615436
 20
26.60069062878775
 10
22.57533232615435
 20
26.60069062878775
 42
0.4142135623731244
 10
22.53533232615436
 20
26.56069062878775
 10
22.59183232615436
 20
26.56069062878775
 10
22.59183232615436
 20
26.49069062878775
 10
22.58183232615437
 20
26.49069062878775
 42
0.7807764064043922
 10
22.57712644380142
 20
26.47186709937599
 10
22.65433232615436
 20
26.43069062878775
  0
LWPOLYLINE
  5
4CDC
330
17
100
AcDbEntity
  8
R-SWTS-DET2
100
AcDbPolyline
 90
        4
 70
     1
 43
0.0
 10
22.63633232615436
 20
26.49469062878775
 42
1.0
 10
22.67233232615436
 20
26.49469062878775
 10
22.67233232615436
 20
26.54269062878775
 42
1.0
 10
22.63633232615436
 20
26.54269062878775
  0
LINE
  5
4D5D
330
17
100
AcDbEntity
  8
R-SWTS-DET2
100
AcDbLine
 10
24.26949036094702
 20
35.6746477641085
 30
0.0
 11
24.69449036094703
 21
35.6746477641085
 31
0.0
  0
LINE
  5
4D5E
330
17
100
AcDbEntity
  8
R-SWTS-DET2
100
AcDbLine
 10
24.26949036094702
 20
35.61132474410849
 30
0.0
 11
24.26949036094702
 21
35.6746477641085
 31
0.0
  0
LINE
  5
4D5F
330
17
100
AcDbEntity
  8
R-SWTS-DET2
100
AcDbLine
 10
24.69449036094703
 20
35.61132474410849
 30
0.0
 11
24.69449036094703
 21
35.6746477641085
 31
0.0
  0
LINE
  5
4D60
330
17
100
AcDbEntity
  8
R-SWTS-DET2
100
AcDbLine
 10
24.37399036094702
 20
35.6746477641085
 30
0.0
 11
24.37399036094702
 21
36.28164816410849
 31
0.0
  0
LINE
  5
4D61
330
17
100
AcDbEntity
  8
R-SWTS-DET2
100
AcDbLine
 10
24.58999036094703
 20
35.6746477641085
 30
0.0
 11
24.58999036094703
 21
36.28164906410849
 31
0.0
  0
LINE
  5
4D62
330
17
100
AcDbEntity
  8
R-SWTS-DET2
100
AcDbLine
 10
24.40599044094702
 20
36.42464776410849
 30
0.0
 11
24.55799028094702
 21
36.42464776410849
 31
0.0
  0
LINE
  5
4D63
330
17
100
AcDbEntity
  8
R-SWTS-DET2
100
AcDbLine
 10
24.37399076094703
 20
36.28164986410849
 30
0.0
 11
24.40599098094703
 21
36.42465136410849
 31
0.0
  0
LINE
  5
4D64
330
17
100
AcDbEntity
  8
R-SWTS-DET2
100
AcDbLine
 10
24.58998996094702
 20
36.28164986410849
 30
0.0
 11
24.55798974094702
 21
36.42465136410849
 31
0.0
  0
ARC
  5
4D66
330
17
100
AcDbEntity
  8
R-SWTS-DET2
100
AcDbCircle
 10
24.29449046094702
 20
35.61132474410849
 30
0.0
 40
0.02500004
100
AcDbArc
 50
179.9998
 51
233.033
  0
ARC
  5
4D67
330
17
100
AcDbEntity
  8
R-SWTS-DET2
100
AcDbCircle
 10
24.66949026094703
 20
35.61132474410849
 30
0.0
 40
0.02500004
100
AcDbArc
 50
306.967
 51
0.0
  0
ARC
  5
4D68
330
17
100
AcDbEntity
  8
R-SWTS-DET2
100
AcDbCircle
 10
24.48199036094703
 20
35.86044636410849
 30
0.0
 40
0.3367977
100
AcDbArc
 50
233.0333
 51
306.9668
  0
LINE
  5
4D69
330
17
100
AcDbEntity
  8
R-SWTS-DET1
100
AcDbLine
 10
25.17499036094712
 20
34.8616477641085
 30
0.0
 11
25.17499036094712
 21
32.11338855827458
 31
0.0
  0
LINE
  5
4D6C
330
17
100
AcDbEntity
  8
R-SWTS-DET2
100
AcDbLine
 10
24.99994832644251
 20
35.04556164905878
 30
0.0
 11
25.04830017534715
 21
35.04556164905878
 31
0.0
  0
LINE
  5
4D6D
330
17
100
AcDbEntity
  8
R-SWTS-DET2
100
AcDbLine
 10
25.00141341420238
 20
34.86253267253526
 30
0.0
 11
25.04830017534715
 21
34.86253267253526
 31
0.0
  0
LINE
  5
4D74
330
17
100
AcDbEntity
  8
R-SWTS-DET2
100
AcDbLine
 10
24.69333232615435
 20
26.68569062878769
 30
0.0
 11
24.26833232615434
 21
26.68569062878769
 31
0.0
  0
LINE
  5
4D75
330
17
100
AcDbEntity
  8
R-SWTS-DET2
100
AcDbLine
 10
24.69333232615435
 20
26.74901364878768
 30
0.0
 11
24.69333232615435
 21
26.68569062878769
 31
0.0
  0
LINE
  5
4D76
330
17
100
AcDbEntity
  8
R-SWTS-DET2
100
AcDbLine
 10
24.26833232615434
 20
26.74901364878768
 30
0.0
 11
24.26833232615434
 21
26.68569062878769
 31
0.0
  0
LINE
  5
4D77
330
17
100
AcDbEntity
  8
R-SWTS-DET2
100
AcDbLine
 10
24.58883232615435
 20
26.68569062878769
 30
0.0
 11
24.58883232615435
 21
26.07869022878768
 31
0.0
  0
LINE
  5
4D78
330
17
100
AcDbEntity
  8
R-SWTS-DET2
100
AcDbLine
 10
24.37283232615434
 20
26.68569062878769
 30
0.0
 11
24.37283232615434
 21
26.07868932878768
 31
0.0
  0
LINE
  5
4D7A
330
17
100
AcDbEntity
  8
R-SWTS-DET2
100
AcDbLine
 10
24.58883192615434
 20
26.07868852878768
 30
0.0
 11
24.55683170615434
 21
25.93568702878768
 31
0.0
  0
LINE
  5
4D7B
330
17
100
AcDbEntity
  8
R-SWTS-DET2
100
AcDbLine
 10
24.37283272615434
 20
26.07868852878768
 30
0.0
 11
24.40483294615435
 21
25.93568702878768
 31
0.0
  0
ARC
  5
4D7D
330
17
100
AcDbEntity
  8
R-SWTS-DET2
100
AcDbCircle
 10
24.66833222615435
 20
26.74901364878768
 30
0.0
 40
0.02500004
100
AcDbArc
 50
359.9998
 51
53.03299999999997
  0
ARC
  5
4D7E
330
17
100
AcDbEntity
  8
R-SWTS-DET2
100
AcDbCircle
 10
24.29333242615434
 20
26.74901364878768
 30
0.0
 40
0.02500004
100
AcDbArc
 50
126.967
 51
180.0
  0
ARC
  5
4D7F
330
17
100
AcDbEntity
  8
R-SWTS-DET2
100
AcDbCircle
 10
24.48083232615434
 20
26.49989202878769
 30
0.0
 40
0.3367977
100
AcDbArc
 50
53.03329999999998
 51
126.9668
  0
LINE
  5
4D80
330
17
100
AcDbEntity
  8
R-SWTS-DET2
100
AcDbLine
 10
25.04826880938185
 20
27.49554131531088
 30
0.0
 11
24.99969616675429
 21
27.49554131531088
 31
0.0
  0
LINE
  5
4D81
330
17
100
AcDbEntity
  8
R-SWTS-DET2
100
AcDbLine
 10
24.99969616675429
 20
27.31790438675262
 30
0.0
 11
25.04826880938185
 21
27.31790438675262
 31
0.0
  0
LINE
  5
4D82
330
17
100
AcDbEntity
  8
R-SWTS-DET3
100
AcDbLine
 10
23.13586527353108
 20
26.43843073850281
 30
0.0
 11
23.25198455503231
 21
26.55455002000403
 31
0.0
  0
LINE
  5
4D83
330
17
100
AcDbEntity
  8
R-SWTS-DET3
100
AcDbLine
 10
23.17152508477541
 20
26.4387352106878
 30
0.0
 11
23.28775116806015
 21
26.55496129397255
 31
0.0
  0
LINE
  5
4D84
330
17
100
AcDbEntity
  8
R-SWTS-DET3
100
AcDbLine
 10
23.20718489601974
 20
26.4390396828728
 30
0.0
 11
23.323517781088
 21
26.55537256794107
 31
0.0
  0
LINE
  5
4D85
330
17
100
AcDbEntity
  8
R-SWTS-DET3
100
AcDbLine
 10
23.24284470726405
 20
26.43934415505781
 30
0.0
 11
23.35928439411585
 21
26.55578384190959
 31
0.0
  0
LINE
  5
4D86
330
17
100
AcDbEntity
  8
R-SWTS-DET3
100
AcDbLine
 10
23.27850451850839
 20
26.4396486272428
 30
0.0
 11
23.37119413648212
 21
26.53233824521653
 31
0.0
  0
LINE
  5
4D87
330
17
100
AcDbEntity
  8
R-SWTS-DET3
100
AcDbLine
 10
23.31416432975272
 20
26.4399530994278
 30
0.0
 11
23.37037605868623
 21
26.49616482836132
 31
0.0
  0
LINE
  5
4D88
330
17
100
AcDbEntity
  8
R-SWTS-DET3
100
AcDbLine
 10
23.34982414099704
 20
26.4402575716128
 30
0.0
 11
23.36955798089035
 21
26.45999141150612
 31
0.0
  0
LINE
  5
4D89
330
17
100
AcDbEntity
  8
R-SWTS-DET3
100
AcDbLine
 10
23.10020546228675
 20
26.43812626631781
 30
0.0
 11
23.21621794200446
 21
26.55413874603552
 31
0.0
  0
LINE
  5
4D8A
330
17
100
AcDbEntity
  8
R-SWTS-DET3
100
AcDbLine
 10
23.06454565104244
 20
26.43782179413281
 30
0.0
 11
23.18045132897662
 21
26.553727472067
 31
0.0
  0
LINE
  5
4D8B
330
17
100
AcDbEntity
  8
R-SWTS-DET3
100
AcDbLine
 10
23.02888583979811
 20
26.43751732194781
 30
0.0
 11
23.14468471594877
 21
26.55331619809848
 31
0.0
  0
LINE
  5
4D8C
330
17
100
AcDbEntity
  8
R-SWTS-DET3
100
AcDbLine
 10
23.00519184694069
 20
26.44917866814973
 30
0.0
 11
23.10891810292092
 21
26.55290492412996
 31
0.0
  0
LINE
  5
4D8D
330
17
100
AcDbEntity
  8
R-SWTS-DET3
100
AcDbLine
 10
23.02360614304387
 20
26.50294830331223
 30
0.0
 11
23.05573727079238
 21
26.53507943106074
 31
0.0
  0
LINE
  5
4DBC
330
17
100
AcDbEntity
  8
R-SWTS-DET1
100
AcDbLine
 10
25.17383232615444
 20
27.49869062878768
 30
0.0
 11
25.17383232615444
 21
30.24839758357467
 31
0.0
  0
LINE
  5
4DD6
330
17
100
AcDbEntity
  8
R-SWTS-DET3
100
AcDbLine
 10
23.13007818812386
 20
35.92190765439337
 30
0.0
 11
23.24619746962509
 21
35.80578837289214
 31
0.0
  0
LINE
  5
4DD7
330
17
100
AcDbEntity
  8
R-SWTS-DET3
100
AcDbLine
 10
23.16573799936818
 20
35.92160318220837
 30
0.0
 11
23.28196408265293
 21
35.80537709892361
 31
0.0
  0
LINE
  5
4DD8
330
17
100
AcDbEntity
  8
R-SWTS-DET3
100
AcDbLine
 10
23.2013978106125
 20
35.92129871002337
 30
0.0
 11
23.31773069568078
 21
35.8049658249551
 31
0.0
  0
LINE
  5
4DD9
330
17
100
AcDbEntity
  8
R-SWTS-DET3
100
AcDbLine
 10
23.23705762185683
 20
35.92099423783837
 30
0.0
 11
23.35349730870863
 21
35.80455455098658
 31
0.0
  0
LINE
  5
4DDA
330
17
100
AcDbEntity
  8
R-SWTS-DET3
100
AcDbLine
 10
23.27271743310117
 20
35.92068976565336
 30
0.0
 11
23.36540705107488
 21
35.82800014767964
 31
0.0
  0
LINE
  5
4DDB
330
17
100
AcDbEntity
  8
R-SWTS-DET3
100
AcDbLine
 10
23.38043204454522
 20
35.91838521458371
 30
0.0
 11
23.43664377347875
 21
35.86217348565018
 31
0.0
  0
LINE
  5
4DDC
330
17
100
AcDbEntity
  8
R-SWTS-DET3
100
AcDbLine
 10
23.41609185578954
 20
35.91808074239871
 30
0.0
 11
23.43582569568287
 21
35.89834690250539
 31
0.0
  0
LINE
  5
4DDD
330
17
100
AcDbEntity
  8
R-SWTS-DET3
100
AcDbLine
 10
23.09441837687953
 20
35.92221212657836
 30
0.0
 11
23.21043085659724
 21
35.80619964686066
 31
0.0
  0
LINE
  5
4DDE
330
17
100
AcDbEntity
  8
R-SWTS-DET3
100
AcDbLine
 10
23.0587585656352
 20
35.92251659876336
 30
0.0
 11
23.1746642435694
 21
35.80661092082917
 31
0.0
  0
LINE
  5
4DDF
330
17
100
AcDbEntity
  8
R-SWTS-DET3
100
AcDbLine
 10
23.02309875439087
 20
35.92282107094836
 30
0.0
 11
23.13889763054155
 21
35.80702219479769
 31
0.0
  0
LINE
  5
4DE0
330
17
100
AcDbEntity
  8
R-SWTS-DET1
100
AcDbLine
 10
22.99940476153347
 20
35.91115972474644
 30
0.0
 11
23.1031310175137
 21
35.80743346876621
 31
0.0
  0
LINE
  5
4DE1
330
17
100
AcDbEntity
  8
R-SWTS-DET1
100
AcDbLine
 10
23.01781905763665
 20
35.85739008958394
 30
0.0
 11
23.04995018538516
 21
35.82525896183542
 31
0.0
  0
TEXT
  5
4E02
330
17
100
AcDbEntity
  8
0
  6
Continuous
 62
     2
100
AcDbText
 10
10.07269676796583
 20
12.60423937025197
 30
0.0
 40
0.375
  1
VENT DETAIL 1
 72
     1
 11
11.97954363017592
 21
12.60423937025197
 31
0.0
100
AcDbText
  0
TEXT
  5
50AB
330
17
100
AcDbEntity
  8
PART_NUMBERS
100
AcDbText
 10
28.83022463566227
 20
24.24872332060814
 30
0.0
 40
0.25
  1
162015 MULLION
100
AcDbText
  0
TEXT
  5
50AC
330
17
100
AcDbEntity
  8
PART_NUMBERS
100
AcDbText
 10
28.83022463566227
 20
25.76933514054442
 30
0.0
 40
0.25
  1
162378 SHEAR BLOCK
100
AcDbText
  0
TEXT
  5
50AD
330
17
100
AcDbEntity
  8
PART_NUMBERS
100
AcDbText
 10
28.83022463566227
 20
24.74872332060814
 30
0.0
 40
0.25
  1
162335 PRESSURE PLATE
100
AcDbText
  0
TEXT
  5
50AE
330
17
100
AcDbEntity
  8
PART_NUMBERS
100
AcDbText
 10
28.83022463566227
 20
36.24141207713641
 30
0.0
 40
0.25
  1
162015 MULLION
100
AcDbText
  0
TEXT
  5
50AF
330
17
100
AcDbEntity
  8
PART_NUMBERS
100
AcDbText
 10
28.83022463566227
 20
37.76202389707269
 30
0.0
 40
0.25
  1
162378 SHEAR BLOCK
100
AcDbText
  0
TEXT
  5
50B0
330
17
100
AcDbEntity
  8
PART_NUMBERS
100
AcDbText
 10
28.83022463566227
 20
36.74141207713641
 30
0.0
 40
0.25
  1
162335 PRESSURE PLATE
100
AcDbText
  0
LINE
  5
50B3
330
17
100
AcDbEntity
  8
R-SWTS-DET1
100
AcDbLine
 10
28.24808575999141
 20
35.92293044838083
 30
0.0
 11
28.24808575999141
 21
34.78968920178469
 31
0.0
  0
TEXT
  5
50B6
330
17
100
AcDbEntity
  8
R-ANNO-DIMS
  6
ByBlock
100
AcDbText
 10
19.62308575999141
 20
32.60006275808121
 30
0.0
 40
0.25
  1
VENT OPENING
 50
90.0
 72
     1
 11
19.49808575999141
 21
33.91963983857234
 31
0.0
100
AcDbText
 73
     2
  0
LINE
  5
50B7
330
17
100
AcDbEntity
  8
R-ANNO-DIMS
  6
ByBlock
100
AcDbLine
 10
19.74808575999141
 20
35.72293044838082
 30
0.0
 11
19.74808575999141
 21
32.30831495112223
 31
0.0
  0
LWPOLYLINE
  5
50BA
330
17
100
AcDbEntity
  8
R-SWTS-DET1
100
AcDbPolyline
 90
       14
 70
     1
 43
0.0
 10
21.55808575999142
 20
26.38024169185256
 10
21.9220857599914
 20
26.38024169185256
 10
21.9220857599914
 20
26.35024169185253
 42
1.0
 10
22.0020857599914
 20
26.35024169185253
 10
22.0020857599914
 20
26.37024169185256
 42
0.4142135623730908
 10
21.9420857599914
 20
26.43024169185256
 10
21.49808575999141
 20
26.43024169185256
 10
21.49808575999141
 20
23.93024169185256
 10
21.9420857599914
 20
23.93024169185256
 42
0.4142135623730907
 10
22.0020857599914
 20
23.99024169185256
 10
22.0020857599914
 20
24.01024169185259
 42
1.0
 10
21.9220857599914
 20
24.01024169185259
 10
21.9220857599914
 20
23.98024169185255
 10
21.55808575999142
 20
23.98024169185256
  0
LWPOLYLINE
  5
50BB
330
17
100
AcDbEntity
  8
R-SWTS-DET1
100
AcDbPolyline
 90
       59
 70
     1
 43
0.0
 10
22.01208575999142
 20
24.24424169185254
 10
22.01208575999142
 20
24.13024169185258
 10
21.87726109079926
 20
24.13024169185258
 10
21.77208575999141
 20
24.1909646974066
 42
1.000000000000009
 10
21.73208575999142
 20
24.12168266510385
 10
21.91471488286213
 20
24.01624169185259
 42
-0.849090458656993
 10
22.01208575999141
 20
24.00024169185258
 10
22.01208575999141
 20
23.96024169185256
 42
0.4142135623731122
 10
22.04208575999141
 20
23.93024169185256
 10
22.22808575999142
 20
23.93024169185256
 42
0.4142135623730951
 10
22.24808575999141
 20
23.95024169185255
 10
22.24808575999141
 20
24.03224169185256
 42
0.6693764950686889
 10
22.222444101382
 20
24.042813120424
 42
-0.1997729274168814
 10
22.15859414972555
 20
24.01624169185256
 10
22.14808575999142
 20
24.01624169185256
 42
-0.4142135623731054
 10
22.09808575999141
 20
24.06624169185255
 10
22.09808575999142
 20
24.15424169185256
 42
-0.4142135623730951
 10
22.14808575999142
 20
24.20424169185255
 10
22.15859414972555
 20
24.20424169185256
 42
-0.1997729274168702
 10
22.22244410138201
 20
24.17767026328113
 42
0.6693764950687497
 10
22.24808575999141
 20
24.18824169185256
 10
22.24808575999141
 20
24.95524169185256
 10
22.26308575999141
 20
24.97024169185256
 10
22.24808575999141
 20
24.98524169185256
 10
22.24808575999141
 20
25.37524169185256
 10
22.26308575999141
 20
25.39024169185256
 10
22.24808575999141
 20
25.40524169185256
 10
22.24808575999141
 20
26.17224169185256
 42
0.6693764950687072
 10
22.22244410138201
 20
26.18281312042399
 42
-0.1997729274168761
 10
22.15859414972555
 20
26.15624169185256
 10
22.14808575999142
 20
26.15624169185256
 42
-0.4142135623730951
 10
22.09808575999142
 20
26.20624169185256
 10
22.09808575999141
 20
26.29424169185256
 42
-0.4142135623731054
 10
22.14808575999142
 20
26.34424169185256
 10
22.15859414972555
 20
26.34424169185256
 42
-0.1997729274168748
 10
22.222444101382
 20
26.31767026328112
 42
0.6693764950686886
 10
22.24808575999141
 20
26.32824169185256
 10
22.24808575999141
 20
26.41024169185256
 42
0.4142135623730951
 10
22.22808575999142
 20
26.43024169185256
 10
22.04208575999141
 20
26.43024169185256
 42
0.4142135623731039
 10
22.01208575999142
 20
26.40024169185256
 10
22.01208575999142
 20
26.36024169185254
 42
-0.8490904586570017
 10
21.9147148828621
 20
26.34424169185253
 10
21.73208575999142
 20
26.23880071860127
 42
1.000000000000009
 10
21.77208575999141
 20
26.16951868629852
 10
21.87726109079926
 20
26.23024169185253
 10
22.01208575999142
 20
26.23024169185253
 10
22.01208575999142
 20
26.11624169185258
 42
0.4142135623730516
 10
22.07208575999139
 20
26.05624169185258
 10
22.14808575999142
 20
26.05624169185257
 10
22.14808575999142
 20
25.50524169185256
 10
22.12308575999141
 20
25.48024169185256
 10
22.12308575999141
 20
25.19524169185256
 10
22.13808575999141
 20
25.18024169185256
 10
22.12308575999141
 20
25.16524169185256
 10
22.12308575999141
 20
24.88024169185255
 10
22.14808575999142
 20
24.85524169185256
 10
22.14808575999142
 20
24.30424169185255
 10
22.07208575999139
 20
24.30424169185254
 42
0.4142135623730518
  0
LWPOLYLINE
  5
50BC
330
17
100
AcDbEntity
  8
R-SWTS-DET1
100
AcDbPolyline
 90
       66
 70
     1
 43
0.0
 10
23.01808575999141
 20
26.43024169185256
 42
0.4142135623730951
 10
22.99808575999141
 20
26.41024169185256
 10
22.99808575999141
 20
26.32824169185256
 42
0.6693764950687339
 10
23.02372741860081
 20
26.31767026328113
 42
-0.1997729274168762
 10
23.08757737025728
 20
26.34424169185256
 10
23.09808575999141
 20
26.34424169185256
 42
-0.4142135623730847
 10
23.14808575999142
 20
26.29424169185256
 10
23.14808575999141
 20
26.20624169185256
 42
-0.4142135623730847
 10
23.09808575999141
 20
26.15624169185256
 10
23.08757737025728
 20
26.15624169185256
 42
-0.1997729274168803
 10
23.02372741860081
 20
26.18281312042399
 42
0.6693764950687373
 10
22.99808575999141
 20
26.17224169185256
 10
22.99808575999141
 20
25.82024169185257
 10
23.01308575999141
 20
25.80524169185256
 10
22.99808575999141
 20
25.79024169185256
 10
22.99808575999141
 20
25.44324169185257
 42
-0.4142135623730951
 10
22.98808575999142
 20
25.43324169185257
 10
22.93208575999141
 20
25.43324169185257
 42
-0.4142135623730951
 10
22.92208575999139
 20
25.44324169185257
 10
22.92208575999139
 20
25.48324169185256
 42
0.4142135623730951
 10
22.9120857599914
 20
25.49324169185256
 10
22.49808575999138
 20
25.49324169185256
 10
22.49808575999141
 20
25.45324169185256
 10
22.48308575999143
 20
25.43824169185257
 10
22.49808575999141
 20
25.4232416919122
 10
22.49808575999141
 20
25.35024169191199
 10
22.48308575999151
 20
25.33524169185247
 10
22.49808575999141
 20
25.32024169185257
 10
22.49808575999141
 20
25.28024169185256
 10
22.92808575999139
 20
25.28024169185256
 10
23.12585033134448
 20
25.22725083466701
 42
-0.3394542588633729
 10
23.14808575999141
 20
25.19827305987834
 10
23.14808575999141
 20
25.16221032382678
 42
-0.339454258863373
 10
23.12585033134448
 20
25.13323254903811
 10
22.92808575999138
 20
25.08024169185256
 10
22.49808575999141
 20
25.08024169185256
 10
22.49808575999141
 20
25.04024169185255
 10
22.48308575999151
 20
25.02524169185265
 10
22.49808575999141
 20
25.01024169179313
 10
22.49808575999141
 20
24.93724169179293
 10
22.48308575999143
 20
24.92224169185255
 10
22.49808575999141
 20
24.90724169185256
 10
22.49808575999138
 20
24.86724169185256
 10
22.9120857599914
 20
24.86724169185256
 42
0.4142135623730951
 10
22.92208575999139
 20
24.87724169185256
 10
22.92208575999139
 20
24.91724169185256
 42
-0.4142135623730951
 10
22.93208575999141
 20
24.92724169185255
 10
22.98808575999142
 20
24.92724169185255
 42
-0.4142135623730951
 10
22.99808575999141
 20
24.91724169185255
 10
22.99808575999141
 20
24.57024169185255
 10
23.01308575999141
 20
24.55524169185256
 10
22.99808575999141
 20
24.54024169185256
 10
22.99808575999141
 20
24.18824169185256
 42
0.6693764950687069
 10
23.02372741860081
 20
24.17767026328113
 42
-0.1997729274168789
 10
23.08757737025728
 20
24.20424169185256
 10
23.09808575999141
 20
24.20424169185256
 42
-0.4142135623730743
 10
23.14808575999141
 20
24.15424169185256
 10
23.14808575999142
 20
24.06624169185256
 42
-0.4142135623730951
 10
23.09808575999141
 20
24.01624169185256
 10
23.08757737025728
 20
24.01624169185256
 42
-0.1997729274168747
 10
23.02372741860081
 20
24.042813120424
 42
0.6693764950686888
 10
22.99808575999141
 20
24.03224169185256
 10
22.99808575999141
 20
23.95024169185256
 42
0.4142135623730951
 10
23.01808575999141
 20
23.93024169185256
 10
28.2480857599914
 20
23.93024169185256
 10
28.24808575999144
 20
26.43024169185256
  0
LWPOLYLINE
  5
50BD
330
17
100
AcDbEntity
  8
R-SWTS-DET1
100
AcDbPolyline
 90
       30
 70
     1
 43
0.0
 10
28.08808575999142
 20
26.11024169185257
 10
28.02808575999141
 20
26.11024169185257
 10
28.02808575999141
 20
25.87524169185257
 10
28.08808575999142
 20
25.87524169185257
 42
-0.4142135623730971
 10
28.14808575999142
 20
25.81524169185257
 10
28.14808575999142
 20
24.54524169185255
 42
-0.4142135623730927
 10
28.08808575999142
 20
24.48524169185255
 10
28.02808575999141
 20
24.48524169185255
 10
28.02808575999141
 20
24.25024169185256
 10
28.08808575999142
 20
24.25024169185256
 42
-0.4142135623730951
 10
28.14808575999141
 20
24.19024169185256
 10
28.14808575999141
 20
24.03024169185256
 10
23.27808575999141
 20
24.03024169185255
 42
-0.4142135623730951
 10
23.24808575999141
 20
24.06024169185255
 10
23.2480857599914
 20
24.26524169185256
 42
0.4142135623730829
 10
23.2280857599914
 20
24.28524169185256
 10
23.12308575999141
 20
24.28524169185256
 10
23.12308575999141
 20
25.00308226182538
 10
23.17396766450166
 20
25.01671602704826
 42
0.3394542588633802
 10
23.24808575999141
 20
25.11330860967716
 10
23.24808575999141
 20
25.24717477402796
 42
0.3394542588633658
 10
23.17396766450166
 20
25.34376735665686
 10
23.12308575999141
 20
25.35740112187974
 10
23.12308575999141
 20
26.07524169185256
 10
23.2280857599914
 20
26.07524169185256
 42
0.4142135623730859
 10
23.2480857599914
 20
26.09524169185256
 10
23.24808575999141
 20
26.30024169185257
 42
-0.4142135623731124
 10
23.27808575999141
 20
26.33024169185257
 10
28.14808575999141
 20
26.33024169185257
 10
28.14808575999141
 20
26.17024169185257
 42
-0.4142135623730951
  0
LWPOLYLINE
  5
50BE
330
17
100
AcDbEntity
  8
R-SWTS-DET2
100
AcDbPolyline
 90
       66
 70
     1
 43
0.0
 10
23.12308575999138
 20
26.03024169185319
 42
-0.4142135623731124
 10
23.15308575999138
 20
26.06024169185319
 10
23.24808575999139
 20
26.06024169185319
 10
23.24808575999139
 20
26.13024169185321
 42
-0.4142135623731124
 10
23.27808575999139
 20
26.16024169185321
 10
23.50808575999139
 20
26.16024169185321
 10
23.654298963427
 20
26.3064548952888
 42
-0.1989123673796534
 10
23.67551216686259
 20
26.31524169185321
 10
23.74808575999138
 20
26.31524169185321
 10
23.77808575999138
 20
26.28524169185321
 10
23.96808575999138
 20
26.28524169185321
 10
23.99808575999138
 20
26.31524169185321
 10
24.10743604841683
 20
26.31524169185321
 42
-0.1989123673796428
 10
24.12864925185242
 20
26.3064548952888
 10
24.59486245528804
 20
25.84024169185321
 10
27.51808575999135
 20
25.84024169185321
 10
27.51808575999135
 20
26.16024169185321
 10
27.08308575999136
 20
26.16024169185321
 42
-0.4142135623731049
 10
27.02308575999136
 20
26.22024169185321
 10
27.02308575999136
 20
26.28524169185321
 42
-0.4142135623730807
 10
27.05308575999136
 20
26.31524169185321
 10
27.24808575999136
 20
26.31524169185321
 10
27.27808575999136
 20
26.28524169185321
 10
27.46808575999136
 20
26.28524169185321
 10
27.49808575999136
 20
26.31524169185321
 10
27.58308575999135
 20
26.31524169185321
 42
-0.4142135623730948
 10
27.64308575999134
 20
26.25524169185321
 10
27.64308575999135
 20
24.10524169185317
 42
-0.4142135623730956
 10
27.58308575999135
 20
24.04524169185317
 10
27.49808575999136
 20
24.04524169185317
 10
27.46808575999136
 20
24.07524169185317
 10
27.27808575999136
 20
24.07524169185317
 10
27.24808575999136
 20
24.04524169185317
 10
27.05308575999136
 20
24.04524169185317
 42
-0.4142135623730807
 10
27.02308575999136
 20
24.07524169185317
 10
27.02308575999136
 20
24.14024169185316
 42
-0.4142135623731049
 10
27.08308575999136
 20
24.20024169185317
 10
27.51808575999135
 20
24.20024169185317
 10
27.51808575999135
 20
24.52024169185317
 10
24.59486245528804
 20
24.52024169185317
 10
24.12864925185242
 20
24.05402848841757
 42
-0.1989123673796517
 10
24.10743604841682
 20
24.04524169185317
 10
23.99808575999138
 20
24.04524169185317
 10
23.96808575999138
 20
24.07524169185317
 10
23.77808575999138
 20
24.07524169185317
 10
23.74808575999138
 20
24.04524169185317
 10
23.67551216686259
 20
24.04524169185317
 42
-0.1989123673796471
 10
23.654298963427
 20
24.05402848841757
 10
23.50808575999139
 20
24.20024169185317
 10
23.27808575999139
 20
24.20024169185317
 42
-0.4142135623731124
 10
23.24808575999139
 20
24.23024169185317
 10
23.24808575999139
 20
24.30024169185319
 10
23.15308575999138
 20
24.30024169185318
 42
-0.4142135623731124
 10
23.12308575999138
 20
24.33024169185318
 10
23.12308575999138
 20
24.39524169185319
 42
-0.4142135623730951
 10
23.15308575999138
 20
24.42524169185319
 10
23.24808575999139
 20
24.42524169185319
 10
23.24808575999139
 20
24.54024169185319
 10
23.26308575999137
 20
24.55524169185319
 10
23.24808575999139
 20
24.57024169185319
 10
23.24808575999139
 20
25.79024169185319
 10
23.26308575999137
 20
25.80524169185319
 10
23.24808575999139
 20
25.82024169185319
 10
23.24808575999139
 20
25.93524169185319
 10
23.15308575999138
 20
25.93524169185319
 42
-0.4142135623731125
 10
23.12308575999138
 20
25.96524169185319
  0
LINE
  5
50C1
330
17
100
AcDbEntity
  8
R-ANNO-DIMS
  6
ByBlock
100
AcDbLine
 10
19.74808575999141
 20
26.23024169185256
 30
0.0
 11
19.74808575999141
 21
24.13024169185256
 31
0.0
  0
LWPOLYLINE
  5
50C3
330
17
100
AcDbEntity
  8
R-SWTS-DET2
100
AcDbPolyline
 90
       46
 70
     1
 43
0.0
 10
23.43308575999138
 20
25.26024169185319
 10
23.57425470404172
 20
25.26024169185319
 42
0.2909872012781223
 10
23.62858762330528
 20
25.29478714639859
 42
-0.5639031077483408
 10
24.0880857599914
 20
25.34356652156378
 10
24.08808575999139
 20
25.29524169185318
 42
-0.4142135623731037
 10
24.02808575999138
 20
25.23524169185318
 10
23.96834855440769
 20
25.23524169185318
 42
3.73205080756965
 10
23.96834855440769
 20
25.12524169185321
 10
24.02808575999138
 20
25.12524169185319
 42
-0.4142135623731037
 10
24.08808575999139
 20
25.06524169185319
 10
24.08808575999137
 20
25.01691686214256
 42
-0.5639031077483051
 10
23.62858762330528
 20
25.06569623730772
 42
0.2909872012781288
 10
23.57425470404169
 20
25.10024169185319
 10
23.43308575999138
 20
25.10024169185319
 42
0.4142135623731038
 10
23.37308575999138
 20
25.04024169185319
 10
23.37308575999138
 20
24.89024169185319
 10
23.40808575999138
 20
24.85524169185318
 10
23.40808575999138
 20
24.32524169185317
 10
23.5080857599914
 20
24.32524169185317
 42
-0.1989123673796632
 10
23.59647410763971
 20
24.28863003950148
 10
23.68486245528803
 20
24.20024169185317
 10
24.09808575999138
 20
24.20024169185317
 10
24.50647410763972
 20
24.60863003950148
 42
-0.1989123673796512
 10
24.59486245528804
 20
24.64524169185317
 10
27.51808575999135
 20
24.64524169185317
 10
27.51808575999135
 20
24.94524169185317
 10
27.27808575999136
 20
24.94524169185317
 42
-0.4142135623730951
 10
27.21808575999136
 20
25.00524169185317
 10
27.21808575999136
 20
25.12524169185319
 10
27.27782296557506
 20
25.12524169185319
 42
3.73205080756965
 10
27.27782296557506
 20
25.23524169185318
 10
27.21808575999136
 20
25.23524169185318
 10
27.21808575999136
 20
25.3552416918532
 42
-0.4142135623730951
 10
27.27808575999136
 20
25.41524169185321
 10
27.51808575999135
 20
25.41524169185321
 10
27.51808575999135
 20
25.71524169185321
 10
24.59486245528804
 20
25.71524169185321
 42
-0.1989123673796512
 10
24.50647410763972
 20
25.75185334420489
 10
24.09808575999138
 20
26.16024169185321
 10
23.68486245528803
 20
26.16024169185321
 10
23.59647410763971
 20
26.07185334420489
 42
-0.1989123673796592
 10
23.5080857599914
 20
26.03524169185321
 10
23.40808575999138
 20
26.03524169185321
 10
23.40808575999138
 20
25.50524169185319
 10
23.37308575999138
 20
25.47024169185319
 10
23.37308575999138
 20
25.32024169185318
 42
0.4142135623731037
  0
LWPOLYLINE
  5
50C4
330
17
100
AcDbEntity
  8
R-SWTS-DET1
100
AcDbPolyline
 90
        6
 70
     0
 43
0.0
 10
21.24808575999141
 20
21.93024169185256
 10
24.76720501355378
 20
21.93024169185256
 10
24.82012542821621
 20
22.14249388197544
 10
24.92604609176662
 20
21.71766930414001
 10
24.97896650642905
 20
21.92992149426288
 10
28.49808575999141
 20
21.93024169185256
  0
LINE
  5
50C5
330
17
100
AcDbEntity
  8
R-ANNO-DIMS
  6
ByBlock
100
AcDbLine
 10
21.37308575999141
 20
23.93024169185256
 30
0.0
 11
19.62308575999141
 21
23.93024169185256
 31
0.0
  0
LINE
  5
50C6
330
17
100
AcDbEntity
  8
R-ANNO-DIMS
  6
ByBlock
100
AcDbLine
 10
21.37308575999141
 20
23.93024169185256
 30
0.0
 11
19.62308575999141
 21
23.93024169185256
 31
0.0
  0
SOLID
  5
50C7
330
17
100
AcDbEntity
  8
R-ANNO-DIMS
  6
ByBlock
100
AcDbTrace
 10
19.71475242665808
 20
23.73024169185256
 30
0.0
 11
19.78141909332474
 21
23.73024169185256
 31
0.0
 12
19.74808575999141
 22
23.93024169185256
 32
0.0
 13
19.74808575999141
 23
23.93024169185256
 33
0.0
  0
TEXT
  5
50C8
330
17
100
AcDbEntity
  8
R-ANNO-DIMS
  6
ByBlock
100
AcDbText
 10
19.62308575999141
 20
22.60109976140466
 30
0.0
 40
0.25
  1
DLO
 50
90.0
 72
     1
 11
19.49808575999141
 21
22.9601550137921
 31
0.0
100
AcDbText
 73
     2
  0
LINE
  5
50C9
330
17
100
AcDbEntity
  8
R-ANNO-DIMS
  6
ByBlock
100
AcDbLine
 10
19.74808575999141
 20
23.73024169185256
 30
0.0
 11
19.74808575999141
 21
22.13024169185256
 31
0.0
  0
SOLID
  5
50CA
330
17
100
AcDbEntity
  8
R-ANNO-DIMS
  6
ByBlock
100
AcDbTrace
 10
19.71475242665808
 20
22.13024169185256
 30
0.0
 11
19.78141909332474
 21
22.13024169185256
 31
0.0
 12
19.74808575999141
 22
21.93024169185256
 32
0.0
 13
19.74808575999141
 23
21.93024169185256
 33
0.0
  0
TEXT
  5
50CB
330
17
100
AcDbEntity
  8
R-ANNO-DIMS
  6
ByBlock
100
AcDbText
 10
19.62308575999141
 20
24.76893807952467
 30
0.0
 40
0.25
  1
2 1/2"
 50
90.0
 72
     1
 11
19.49808575999141
 21
25.21931325005673
 31
0.0
100
AcDbText
 73
     2
  0
SOLID
  5
50CC
330
17
100
AcDbEntity
  8
R-ANNO-DIMS
  6
ByBlock
100
AcDbTrace
 10
19.71475242665808
 20
24.13024169185256
 30
0.0
 11
19.78141909332474
 21
24.13024169185256
 31
0.0
 12
19.74808575999141
 22
23.93024169185256
 32
0.0
 13
19.74808575999141
 23
23.93024169185256
 33
0.0
  0
LINE
  5
50CD
330
17
100
AcDbEntity
  8
R-SWTS-DET2
100
AcDbLine
 10
23.28784068201526
 20
23.86985606779147
 30
0.0
 11
23.28784068201527
 21
23.92985606779148
 31
0.0
  0
LINE
  5
50CE
330
17
100
AcDbEntity
  8
R-SWTS-DET2
100
AcDbLine
 10
21.95833083796757
 20
23.86985606779147
 30
0.0
 11
21.95833083796755
 21
23.92985606779148
 31
0.0
  0
LINE
  5
50CF
330
17
100
AcDbEntity
  8
R-SWTS-DET3
100
AcDbLine
 10
21.71408575999142
 20
23.90771883573777
 30
0.0
 11
21.71408575999142
 21
25.64924169185256
 31
0.0
  0
LWPOLYLINE
  5
50D1
330
17
100
AcDbEntity
  8
R-SWTS-DET3
100
AcDbPolyline
 90
        4
 70
     0
 43
0.0
 10
22.74808575999141
 20
21.93024169185256
 10
22.74808575999141
 20
24.43024169185256
 10
22.49808575999141
 20
24.43024169185256
 10
22.49808575999141
 20
21.93024169185256
  0
LINE
  5
50D2
330
17
100
AcDbEntity
  8
R-SWTS-DET2
100
AcDbLine
 10
22.49833083796756
 20
23.79332063472061
 30
0.0
 11
21.95833083796757
 21
23.86985606779147
 31
0.0
  0
SOLID
  5
50D4
330
17
100
AcDbEntity
  8
R-SWTS-DET3
100
AcDbTrace
 10
21.74741909332475
 20
23.90771883573777
 30
0.0
 11
21.68075242665807
 21
23.90771883573777
 31
0.0
 12
21.71408575999142
 22
23.70771883573777
 32
0.0
 13
21.71408575999142
 23
23.70771883573777
 33
0.0
  0
LINE
  5
50D5
330
17
100
AcDbEntity
  8
R-SWTS-DET2
100
AcDbLine
 10
23.28784068201527
 20
23.88722130370773
 30
0.0
 11
23.28784068201527
 21
21.93024169185256
 31
0.0
  0
LINE
  5
50D6
330
17
100
AcDbEntity
  8
R-SWTS-DET2
100
AcDbLine
 10
22.74784068201527
 20
23.79332063472061
 30
0.0
 11
23.28784068201526
 21
23.86985606779147
 31
0.0
  0
LINE
  5
50D7
330
17
100
AcDbEntity
  8
R-SWTS-DET2
100
AcDbLine
 10
22.12308575999144
 20
25.05485169185256
 30
0.0
 11
22.78808575999143
 21
25.05485169185256
 31
0.0
  0
LINE
  5
50D8
330
17
100
AcDbEntity
  8
R-SWTS-DET3
100
AcDbLine
 10
21.71408575999142
 20
25.64924169185256
 30
0.0
 11
22.58356205472212
 21
25.64924169185256
 31
0.0
  0
LINE
  5
50D9
330
17
100
AcDbEntity
  8
R-SWTS-DET2
100
AcDbLine
 10
22.12308575999144
 20
25.30562169185256
 30
0.0
 11
22.78808575999143
 21
25.30562169185256
 31
0.0
  0
LINE
  5
50DA
330
17
100
AcDbEntity
  8
R-SWTS-DET2
100
AcDbLine
 10
22.49808575999141
 20
25.49324169185255
 30
0.0
 11
22.24808575999141
 21
25.49324169185255
 31
0.0
  0
LINE
  5
50DB
330
17
100
AcDbEntity
  8
R-SWTS-DET2
100
AcDbLine
 10
22.24808575999141
 20
24.86724169185257
 30
0.0
 11
22.49808575999141
 21
24.86724169185257
 31
0.0
  0
LINE
  5
50DC
330
17
100
AcDbEntity
  8
R-SWTS-DET2
100
AcDbLine
 10
22.24833083796756
 20
24.40985606779147
 30
0.0
 11
22.49833083796756
 21
24.40985606779147
 31
0.0
  0
ARC
  5
50DE
330
17
100
AcDbEntity
  8
R-SWTS-DET2
100
AcDbCircle
 10
21.96279075999143
 20
25.02804669185256
 30
0.0
 40
0.0543126
100
AcDbArc
 50
110.9107
 51
249.0893
  0
LINE
  5
50DF
330
17
100
AcDbEntity
  8
R-SWTS-DET2
100
AcDbLine
 10
21.93948075999143
 20
25.36683169185256
 30
0.0
 11
21.93948075999143
 21
24.99364169185256
 31
0.0
  0
LINE
  5
50E0
330
17
100
AcDbEntity
  8
R-SWTS-DET2
100
AcDbLine
 10
21.90848075999143
 20
25.33242169185256
 30
0.0
 11
21.90848075999143
 21
25.02804669185256
 31
0.0
  0
LINE
  5
50E1
330
17
100
AcDbEntity
  8
R-SWTS-DET2
100
AcDbLine
 10
22.08308575999144
 20
25.43024169185256
 30
0.0
 11
22.08308575999144
 21
24.93024169185256
 31
0.0
  0
LINE
  5
50E2
330
17
100
AcDbEntity
  8
R-SWTS-DET1
100
AcDbLine
 10
22.12308575999144
 20
25.43024169185256
 30
0.0
 11
22.12308575999144
 21
24.93024169185256
 31
0.0
  0
LINE
  5
50E3
330
17
100
AcDbEntity
  8
R-SWTS-DET1
100
AcDbLine
 10
22.24808575999141
 20
25.04724169185255
 30
0.0
 11
22.12308575999141
 21
25.04724169185255
 31
0.0
  0
LINE
  5
50E4
330
17
100
AcDbEntity
  8
R-SWTS-DET2
100
AcDbLine
 10
21.94340575999143
 20
24.97732169185256
 30
0.0
 11
22.08308575999144
 21
24.97732169185256
 31
0.0
  0
LINE
  5
50E5
330
17
100
AcDbEntity
  8
R-SWTS-DET2
100
AcDbLine
 10
21.92077575999143
 20
24.99364169185256
 30
0.0
 11
21.93948075999143
 21
24.99364169185256
 31
0.0
  0
LINE
  5
50E6
330
17
100
AcDbEntity
  8
R-SWTS-DET1
100
AcDbLine
 10
22.08308575999144
 20
24.93024169185256
 30
0.0
 11
22.12308575999144
 21
24.93024169185256
 31
0.0
  0
LINE
  5
50E7
330
17
100
AcDbEntity
  8
R-SWTS-DET1
100
AcDbLine
 10
22.24808575999141
 20
24.86724169185257
 30
0.0
 11
22.24808575999141
 21
24.92974169185256
 31
0.0
  0
LWPOLYLINE
  5
50E8
330
17
100
AcDbEntity
  8
R-SWTS-DET3
100
AcDbPolyline
 90
        4
 70
     1
 43
0.0
 10
21.87008575999141
 20
23.93024169185256
 10
21.55808575999142
 20
23.98024169185255
 10
21.55808575999142
 20
23.93024169185256
 10
21.87008575999141
 20
23.98024169185255
  0
LINE
  5
50E9
330
17
100
AcDbEntity
  8
R-SWTS-DET2
100
AcDbLine
 10
21.95833083796755
 20
23.92985606779148
 30
0.0
 11
22.07396169568089
 21
23.92985606779148
 31
0.0
  0
LWPOLYLINE
  5
50EA
330
17
100
AcDbEntity
  8
R-SWTS-DET3
100
AcDbPolyline
 90
        5
 70
     0
 43
0.0
 10
22.14808575999142
 20
25.50524169185256
 10
22.24808575999141
 20
25.80524169185255
 10
22.14808575999142
 20
25.80524169185255
 10
22.24808575999141
 20
25.49324169185255
 10
22.1360857599914
 20
25.49324169185255
  0
LINE
  5
50EB
330
17
100
AcDbEntity
  8
R-SWTS-DET2
100
AcDbLine
 10
21.94340575999143
 20
25.38315169185256
 30
0.0
 11
22.08308575999144
 21
25.38315169185256
 31
0.0
  0
LINE
  5
50EC
330
17
100
AcDbEntity
  8
R-SWTS-DET2
100
AcDbLine
 10
21.94340575999143
 20
25.28169669185256
 30
0.0
 11
22.08308575999144
 21
25.28169669185256
 31
0.0
  0
LINE
  5
50ED
330
17
100
AcDbEntity
  8
R-SWTS-DET2
100
AcDbLine
 10
21.94340575999143
 20
25.07877669185256
 30
0.0
 11
22.08308575999144
 21
25.07877669185256
 31
0.0
  0
ARC
  5
50EE
330
17
100
AcDbEntity
  8
R-SWTS-DET2
100
AcDbCircle
 10
22.07333075999144
 20
25.18024169185256
 30
0.0
 40
0.16484915
100
AcDbArc
 50
142.0123
 51
217.9877
  0
ARC
  5
50EF
330
17
100
AcDbEntity
  8
R-SWTS-DET2
100
AcDbCircle
 10
21.96279075999143
 20
25.33242169185256
 30
0.0
 40
0.0543126
100
AcDbArc
 50
110.9107
 51
249.0893
  0
LINE
  5
50F0
330
17
100
AcDbEntity
  8
R-SWTS-DET2
100
AcDbLine
 10
21.92077575999143
 20
25.36683169185256
 30
0.0
 11
21.93948075999143
 21
25.36683169185256
 31
0.0
  0
LINE
  5
50F1
330
17
100
AcDbEntity
  8
R-SWTS-DET1
100
AcDbLine
 10
22.08308575999144
 20
25.43024169185256
 30
0.0
 11
22.12308575999144
 21
25.43024169185256
 31
0.0
  0
LINE
  5
50F2
330
17
100
AcDbEntity
  8
R-SWTS-DET1
100
AcDbLine
 10
22.24808575999141
 20
25.31324169185256
 30
0.0
 11
22.12308575999141
 21
25.31324169185256
 31
0.0
  0
LINE
  5
50F3
330
17
100
AcDbEntity
  8
R-SWTS-DET1
100
AcDbLine
 10
22.24808575999141
 20
25.43074169185255
 30
0.0
 11
22.24808575999141
 21
25.49324169185255
 31
0.0
  0
LINE
  5
50F4
330
17
100
AcDbEntity
  8
R-SWTS-DET2
100
AcDbLine
 10
23.85608579999142
 20
25.09849177185256
 30
0.0
 11
23.85608579999142
 21
25.05074169185256
 31
0.0
  0
LINE
  5
50F5
330
17
100
AcDbEntity
  8
R-SWTS-DET2
100
AcDbLine
 10
23.89008577999142
 20
25.09849177185256
 30
0.0
 11
23.89008577999142
 21
25.05074169185256
 31
0.0
  0
LINE
  5
50F6
330
17
100
AcDbEntity
  8
R-SWTS-DET2
100
AcDbLine
 10
22.78808575999143
 20
25.05485169185256
 30
0.0
 11
23.12308575999144
 21
25.18024169185256
 31
0.0
  0
CIRCLE
  5
50F7
330
17
100
AcDbEntity
  8
R-SWTS-DET2
100
AcDbCircle
 10
23.87308575999143
 20
25.18024169185256
 30
0.0
 40
0.2125
  0
LINE
  5
50F8
330
17
100
AcDbEntity
  8
R-SWTS-DET2
100
AcDbLine
 10
23.13008575999142
 20
24.66324169185322
 30
0.0
 11
23.6607444731477
 21
24.66324169185322
 31
0.0
  0
LINE
  5
50F9
330
17
100
AcDbEntity
  8
R-SWTS-DET2
100
AcDbLine
 10
23.6607444731477
 20
24.44724169185323
 30
0.0
 11
23.13008575999142
 21
24.44724169185323
 31
0.0
  0
LINE
  5
50FA
330
17
100
AcDbEntity
  8
R-SWTS-DET2
100
AcDbLine
 10
23.24808575999137
 20
24.46424169185309
 30
0.0
 11
23.40808575999137
 21
24.4642416918531
 31
0.0
  0
LINE
  5
50FB
330
17
100
AcDbEntity
  8
R-SWTS-DET2
100
AcDbLine
 10
23.24808575999137
 20
24.64624169185309
 30
0.0
 11
23.40808575999137
 21
24.64624169185309
 31
0.0
  0
LINE
  5
50FC
330
17
100
AcDbEntity
  8
R-SWTS-DET1
100
AcDbLine
 10
22.49808575999141
 20
24.86724169185257
 30
0.0
 11
22.49808575999141
 21
24.92974169185256
 31
0.0
  0
LINE
  5
50FD
330
17
100
AcDbEntity
  8
R-SWTS-DET2
100
AcDbLine
 10
23.13008575999142
 20
24.44724169185323
 30
0.0
 11
22.99808575999141
 21
24.33624169185323
 31
0.0
  0
LINE
  5
50FE
330
17
100
AcDbEntity
  8
R-SWTS-DET2
100
AcDbLine
 10
22.99784068201526
 20
24.40985606779147
 30
0.0
 11
22.74784068201527
 21
24.40985606779147
 31
0.0
  0
LINE
  5
50FF
330
17
100
AcDbEntity
  8
R-SWTS-DET2
100
AcDbLine
 10
22.99808575999141
 20
24.33624169185323
 30
0.0
 11
22.99808575999141
 21
24.77424169185323
 31
0.0
  0
LINE
  5
5100
330
17
100
AcDbEntity
  8
R-SWTS-DET2
100
AcDbLine
 10
22.99808575999141
 20
24.77424169185323
 30
0.0
 11
23.13008575999142
 21
24.66324169185322
 31
0.0
  0
LINE
  5
5101
330
17
100
AcDbEntity
  8
R-SWTS-DET2
100
AcDbLine
 10
23.28784068201527
 20
23.92985606779148
 30
0.0
 11
23.17220982430192
 21
23.92985606779148
 31
0.0
  0
LINE
  5
5102
330
17
100
AcDbEntity
  8
R-SWTS-DET2
100
AcDbLine
 10
23.85608579999142
 20
25.05074169185256
 30
0.0
 11
23.89008577999142
 21
25.05074169185256
 31
0.0
  0
LINE
  5
5103
330
17
100
AcDbEntity
  8
R-SWTS-DET2
100
AcDbLine
 10
23.6607444731477
 20
24.66324169185322
 30
0.0
 11
23.85456626296237
 21
24.58295807782857
 31
0.0
  0
ARC
  5
5104
330
17
100
AcDbEntity
  8
R-SWTS-DET2
100
AcDbCircle
 10
23.84308575999141
 20
24.55524169185323
 30
0.0
 40
0.0299999999999996
100
AcDbArc
 50
292.4999999999979
 51
67.50000000000217
  0
LINE
  5
5105
330
17
100
AcDbEntity
  8
R-SWTS-DET2
100
AcDbLine
 10
23.85456626296237
 20
24.52752530587789
 30
0.0
 11
23.6607444731477
 21
24.44724169185323
 31
0.0
  0
LINE
  5
5106
330
17
100
AcDbEntity
  8
R-SWTS-DET2
100
AcDbLine
 10
23.24808575999137
 20
25.8962416918531
 30
0.0
 11
23.40808575999137
 21
25.8962416918531
 31
0.0
  0
LINE
  5
5107
330
17
100
AcDbEntity
  8
R-SWTS-DET2
100
AcDbLine
 10
23.24808575999137
 20
25.7142416918531
 30
0.0
 11
23.40808575999137
 21
25.7142416918531
 31
0.0
  0
LWPOLYLINE
  5
5108
330
17
100
AcDbEntity
  8
R-SWTS-DET2
100
AcDbPolyline
 90
        8
 70
     1
 43
0.0
 10
23.13008575999142
 20
25.91324169185189
 10
22.99808575999141
 20
26.02424169185189
 10
22.99808575999141
 20
25.58624169185189
 10
23.13008575999142
 20
25.69724169185189
 10
23.6607444731477
 20
25.69724169185189
 10
23.85456626296237
 20
25.77752530587655
 42
0.6681786379193252
 10
23.85456626296237
 20
25.83295807782723
 10
23.6607444731477
 20
25.91324169185189
  0
LINE
  5
5109
330
17
100
AcDbEntity
  8
R-SWTS-DET2
100
AcDbLine
 10
23.12308575999144
 20
25.18024169185256
 30
0.0
 11
22.78808575999143
 21
25.30562169185256
 31
0.0
  0
LINE
  5
510A
330
17
100
AcDbEntity
  8
R-SWTS-DET1
100
AcDbLine
 10
22.49808575999141
 20
25.43074169185255
 30
0.0
 11
22.49808575999141
 21
25.49324169185255
 31
0.0
  0
LINE
  5
510B
330
17
100
AcDbEntity
  8
R-SWTS-DET2
100
AcDbLine
 10
23.85608579999142
 20
25.30974169185256
 30
0.0
 11
23.85608579999142
 21
25.26199161185256
 31
0.0
  0
LINE
  5
510C
330
17
100
AcDbEntity
  8
R-SWTS-DET2
100
AcDbLine
 10
23.89008577999142
 20
25.30974169185256
 30
0.0
 11
23.89008577999142
 21
25.26199161185256
 31
0.0
  0
LINE
  5
510D
330
17
100
AcDbEntity
  8
R-SWTS-DET2
100
AcDbLine
 10
23.74358575999143
 20
25.19724169185256
 30
0.0
 11
23.79133583999142
 21
25.19724169185256
 31
0.0
  0
LINE
  5
510E
330
17
100
AcDbEntity
  8
R-SWTS-DET2
100
AcDbLine
 10
23.74358575999143
 20
25.16324169185256
 30
0.0
 11
23.79133583999142
 21
25.16324169185256
 31
0.0
  0
LINE
  5
510F
330
17
100
AcDbEntity
  8
R-SWTS-DET2
100
AcDbLine
 10
23.95483573999142
 20
25.19724169185256
 30
0.0
 11
24.00258575999142
 21
25.19724169185256
 31
0.0
  0
LINE
  5
5110
330
17
100
AcDbEntity
  8
R-SWTS-DET2
100
AcDbLine
 10
23.95483573999142
 20
25.16324169185256
 30
0.0
 11
24.00258575999142
 21
25.16324169185256
 31
0.0
  0
LINE
  5
5111
330
17
100
AcDbEntity
  8
R-SWTS-DET2
100
AcDbLine
 10
24.00258575999142
 20
25.19724169185256
 30
0.0
 11
24.00258575999142
 21
25.16324169185256
 31
0.0
  0
LINE
  5
5112
330
17
100
AcDbEntity
  8
R-SWTS-DET2
100
AcDbLine
 10
23.74358575999143
 20
25.19724169185256
 30
0.0
 11
23.74358575999143
 21
25.16324169185256
 31
0.0
  0
LINE
  5
5113
330
17
100
AcDbEntity
  8
R-SWTS-DET2
100
AcDbLine
 10
23.85608579999142
 20
25.30974169185256
 30
0.0
 11
23.89008577999142
 21
25.30974169185256
 31
0.0
  0
ARC
  5
5114
330
17
100
AcDbEntity
  8
R-SWTS-DET2
100
AcDbCircle
 10
23.79133583999142
 20
25.26199161185256
 30
0.0
 40
0.06474996
100
AcDbArc
 50
270.0
 51
0.0
  0
ARC
  5
5115
330
17
100
AcDbEntity
  8
R-SWTS-DET2
100
AcDbCircle
 10
23.95483573999142
 20
25.26199161185256
 30
0.0
 40
0.06474996
100
AcDbArc
 50
180.0
 51
270.0
  0
ARC
  5
5116
330
17
100
AcDbEntity
  8
R-SWTS-DET2
100
AcDbCircle
 10
23.95483573999142
 20
25.09849177185256
 30
0.0
 40
0.06474996
100
AcDbArc
 50
89.99996999999998
 51
180.0
  0
ARC
  5
5117
330
17
100
AcDbEntity
  8
R-SWTS-DET2
100
AcDbCircle
 10
23.79133583999142
 20
25.09849177185256
 30
0.0
 40
0.06474996
100
AcDbArc
 50
0.0
 51
89.99990999999999
  0
LINE
  5
5118
330
17
100
AcDbEntity
  8
R-SWTS-DET1
100
AcDbLine
 10
28.24808575999141
 20
23.93024169185256
 30
0.0
 11
28.24808575999141
 21
21.93024169185256
 31
0.0
  0
LINE
  5
5119
330
17
100
AcDbEntity
  8
R-SWTS-DET2
100
AcDbLine
 10
27.35608579999145
 20
25.09849177185256
 30
0.0
 11
27.35608579999145
 21
25.05074169185256
 31
0.0
  0
LINE
  5
511A
330
17
100
AcDbEntity
  8
R-SWTS-DET2
100
AcDbLine
 10
27.39008577999145
 20
25.09849177185256
 30
0.0
 11
27.39008577999145
 21
25.05074169185256
 31
0.0
  0
CIRCLE
  5
511B
330
17
100
AcDbEntity
  8
R-SWTS-DET2
100
AcDbCircle
 10
27.37308575999146
 20
25.18024169185256
 30
0.0
 40
0.2125
  0
LINE
  5
511C
330
17
100
AcDbEntity
  8
R-SWTS-DET2
100
AcDbLine
 10
27.35608579999145
 20
25.05074169185256
 30
0.0
 11
27.39008577999145
 21
25.05074169185256
 31
0.0
  0
LINE
  5
511D
330
17
100
AcDbEntity
  8
R-SWTS-DET1
100
AcDbLine
 10
28.24808575999144
 20
23.93024169185257
 30
0.0
 11
28.24808575999144
 21
23.94924169185256
 31
0.0
  0
ARC
  5
511E
330
17
100
AcDbEntity
  8
R-SWTS-DET2
100
AcDbCircle
 10
27.29133583999145
 20
25.26199161185256
 30
0.0
 40
0.06474996
100
AcDbArc
 50
270.0
 51
0.0
  0
ARC
  5
511F
330
17
100
AcDbEntity
  8
R-SWTS-DET2
100
AcDbCircle
 10
27.29133583999145
 20
25.09849177185256
 30
0.0
 40
0.06474996
100
AcDbArc
 50
0.0
 51
89.99990999999999
  0
LINE
  5
5120
330
17
100
AcDbEntity
  8
R-SWTS-DET2
100
AcDbLine
 10
27.24358575999145
 20
25.19724169185256
 30
0.0
 11
27.29133583999145
 21
25.19724169185256
 31
0.0
  0
LINE
  5
5121
330
17
100
AcDbEntity
  8
R-SWTS-DET2
100
AcDbLine
 10
27.24358575999145
 20
25.16324169185256
 30
0.0
 11
27.29133583999145
 21
25.16324169185256
 31
0.0
  0
LINE
  5
5122
330
17
100
AcDbEntity
  8
R-SWTS-DET2
100
AcDbLine
 10
27.24358575999145
 20
25.19724169185256
 30
0.0
 11
27.24358575999145
 21
25.16324169185256
 31
0.0
  0
LINE
  5
5123
330
17
100
AcDbEntity
  8
R-SWTS-DET2
100
AcDbLine
 10
27.35608579999145
 20
25.30974169185256
 30
0.0
 11
27.35608579999145
 21
25.26199161185256
 31
0.0
  0
LINE
  5
5124
330
17
100
AcDbEntity
  8
R-SWTS-DET2
100
AcDbLine
 10
27.39008577999145
 20
25.30974169185256
 30
0.0
 11
27.39008577999145
 21
25.26199161185256
 31
0.0
  0
LINE
  5
5125
330
17
100
AcDbEntity
  8
R-SWTS-DET2
100
AcDbLine
 10
27.45483573999145
 20
25.19724169185256
 30
0.0
 11
27.50258575999145
 21
25.19724169185256
 31
0.0
  0
LINE
  5
5126
330
17
100
AcDbEntity
  8
R-SWTS-DET2
100
AcDbLine
 10
27.45483573999145
 20
25.16324169185256
 30
0.0
 11
27.50258575999145
 21
25.16324169185256
 31
0.0
  0
LINE
  5
5127
330
17
100
AcDbEntity
  8
R-SWTS-DET2
100
AcDbLine
 10
27.50258575999145
 20
25.19724169185256
 30
0.0
 11
27.50258575999145
 21
25.16324169185256
 31
0.0
  0
LINE
  5
5128
330
17
100
AcDbEntity
  8
R-SWTS-DET2
100
AcDbLine
 10
27.35608579999145
 20
25.30974169185256
 30
0.0
 11
27.39008577999145
 21
25.30974169185256
 31
0.0
  0
ARC
  5
5129
330
17
100
AcDbEntity
  8
R-SWTS-DET2
100
AcDbCircle
 10
27.45483573999145
 20
25.26199161185256
 30
0.0
 40
0.06474996
100
AcDbArc
 50
180.0
 51
270.0
  0
ARC
  5
512A
330
17
100
AcDbEntity
  8
R-SWTS-DET2
100
AcDbCircle
 10
27.45483573999145
 20
25.09849177185256
 30
0.0
 40
0.06474996
100
AcDbArc
 50
89.99996999999998
 51
180.0
  0
TEXT
  5
512B
330
17
100
AcDbEntity
  8
PART_NUMBERS
100
AcDbText
 10
28.83022463566227
 20
25.24872332060815
 30
0.0
 40
0.25
  1
162006 COVER
100
AcDbText
  0
LWPOLYLINE
  5
512C
330
17
100
AcDbEntity
  8
R-SWTS-DET1
100
AcDbPolyline
 90
        6
 70
     0
 43
0.0
 10
21.16225099040393
 20
30.26259217611883
 10
24.64086748833093
 20
30.26259217611883
 10
24.69378790299336
 20
30.05033998599595
 10
24.79970856654376
 20
30.47516456383137
 10
24.85270881543174
 20
30.26259217611883
 10
28.70559670011751
 20
30.26259217611883
  0
LWPOLYLINE
  5
512D
330
17
100
AcDbEntity
  8
R-SWTS-DET1
100
AcDbPolyline
 90
        6
 70
     0
 43
0.0
 10
21.0048989631622
 20
32.09057996411456
 10
24.58147099319807
 20
32.09057996411456
 10
24.6343914078605
 20
32.30283215423743
 10
24.7403120714109
 20
31.87800757640201
 10
24.79331232029888
 20
32.09057996411456
 10
28.75613192309554
 20
32.09057996411456
  0
LINE
  5
5133
330
17
100
AcDbEntity
  8
R-ANNO-DIMS
  6
ByBlock
100
AcDbLine
 10
21.37308575999141
 20
26.43024169185256
 30
0.0
 11
19.62308575999141
 21
26.43024169185256
 31
0.0
  0
LINE
  5
5134
330
17
100
AcDbEntity
  8
R-ANNO-DIMS
  6
ByBlock
100
AcDbLine
 10
21.37308575999141
 20
26.43024169185256
 30
0.0
 11
19.62308575999141
 21
26.43024169185256
 31
0.0
  0
LINE
  5
5135
330
17
100
AcDbEntity
  8
R-ANNO-DIMS
  6
ByBlock
100
AcDbLine
 10
19.74808575999141
 20
26.63024169185256
 30
0.0
 11
19.74808575999141
 21
30.04485718911116
 31
0.0
  0
TEXT
  5
5136
330
17
100
AcDbEntity
  8
R-ANNO-DIMS
  6
ByBlock
100
AcDbText
 10
19.62308575999141
 20
27.02327858774101
 30
0.0
 40
0.25
  1
VENT OPENING
 50
90.0
 72
     1
 11
19.49808575999141
 21
28.34285566823215
 31
0.0
100
AcDbText
 73
     2
  0
SOLID
  5
5137
330
17
100
AcDbEntity
  8
R-ANNO-DIMS
  6
ByBlock
100
AcDbTrace
 10
19.71475242665808
 20
26.63024169185256
 30
0.0
 11
19.78141909332474
 21
26.63024169185256
 31
0.0
 12
19.74808575999141
 22
26.43024169185256
 32
0.0
 13
19.74808575999141
 23
26.43024169185256
 33
0.0
  0
SOLID
  5
5138
330
17
100
AcDbEntity
  8
R-ANNO-DIMS
  6
ByBlock
100
AcDbTrace
 10
19.71475242665808
 20
26.23024169185256
 30
0.0
 11
19.78141909332474
 21
26.23024169185256
 31
0.0
 12
19.74808575999141
 22
26.43024169185256
 32
0.0
 13
19.74808575999141
 23
26.43024169185256
 33
0.0
  0
SOLID
  5
5139
330
17
100
AcDbEntity
  8
R-ANNO-DIMS
  6
ByBlock
100
AcDbTrace
 10
19.71475242665808
 20
30.02493499976713
 30
0.0
 11
19.78141909332474
 21
30.02493499976713
 31
0.0
 12
19.74808575999141
 22
30.22493499976713
 32
0.0
 13
19.74808575999141
 23
30.22493499976713
 33
0.0
  0
SOLID
  5
514D
330
17
100
AcDbEntity
  8
R-ANNO-DIMS
  6
ByBlock
100
AcDbTrace
 10
19.71475242665808
 20
32.32823714046626
 30
0.0
 11
19.78141909332474
 21
32.32823714046626
 31
0.0
 12
19.74808575999141
 22
32.12823714046626
 32
0.0
 13
19.74808575999141
 23
32.12823714046626
 33
0.0
  0
LINE
  5
5158
330
17
100
AcDbEntity
  8
R-SWTS-DET1
100
AcDbLine
 10
28.24808575999141
 20
26.43024169185256
 30
0.0
 11
28.24808575999141
 21
27.68636277245702
 31
0.0
  0
LWPOLYLINE
  5
5160
330
17
100
AcDbEntity
  8
R-SWTS-DET1
100
AcDbPolyline
 90
        6
 70
     0
 43
0.0
 10
21.24808575999141
 20
40.42293044838082
 10
24.76720501355378
 20
40.42293044838082
 10
24.82012542821621
 20
40.6351826385037
 10
24.92604609176662
 20
40.21035806066827
 10
24.97896650642905
 20
40.42261025079115
 10
28.49808575999141
 20
40.42293044838082
  0
LWPOLYLINE
  5
5161
330
17
100
AcDbEntity
  8
R-SWTS-DET1
100
AcDbPolyline
 90
       66
 70
     1
 43
0.0
 10
23.01808575999141
 20
38.42293044838083
 42
0.4142135623730951
 10
22.99808575999141
 20
38.40293044838083
 10
22.99808575999141
 20
38.32093044838083
 42
0.6693764950687339
 10
23.02372741860081
 20
38.3103590198094
 42
-0.1997729274168762
 10
23.08757737025728
 20
38.33693044838083
 10
23.09808575999141
 20
38.33693044838083
 42
-0.4142135623730847
 10
23.14808575999142
 20
38.28693044838083
 10
23.14808575999141
 20
38.19893044838083
 42
-0.4142135623730847
 10
23.09808575999141
 20
38.14893044838083
 10
23.08757737025728
 20
38.14893044838083
 42
-0.1997729274168803
 10
23.02372741860081
 20
38.17550187695225
 42
0.6693764950687373
 10
22.99808575999141
 20
38.16493044838083
 10
22.99808575999141
 20
37.81293044838083
 10
23.01308575999141
 20
37.79793044838083
 10
22.99808575999141
 20
37.78293044838083
 10
22.99808575999141
 20
37.43593044838084
 42
-0.4142135623730951
 10
22.98808575999142
 20
37.42593044838084
 10
22.93208575999141
 20
37.42593044838084
 42
-0.4142135623730951
 10
22.92208575999139
 20
37.43593044838084
 10
22.92208575999139
 20
37.47593044838083
 42
0.4142135623730951
 10
22.9120857599914
 20
37.48593044838083
 10
22.49808575999138
 20
37.48593044838083
 10
22.49808575999141
 20
37.44593044838083
 10
22.48308575999143
 20
37.43093044838083
 10
22.49808575999141
 20
37.41593044844047
 10
22.49808575999141
 20
37.34293044844026
 10
22.48308575999151
 20
37.32793044838074
 10
22.49808575999141
 20
37.31293044838083
 10
22.49808575999141
 20
37.27293044838083
 10
22.92808575999139
 20
37.27293044838083
 10
23.12585033134448
 20
37.21993959119528
 42
-0.3394542588633729
 10
23.14808575999141
 20
37.19096181640661
 10
23.14808575999141
 20
37.15489908035504
 42
-0.339454258863373
 10
23.12585033134448
 20
37.12592130556637
 10
22.92808575999138
 20
37.07293044838082
 10
22.49808575999141
 20
37.07293044838082
 10
22.49808575999141
 20
37.03293044838082
 10
22.48308575999151
 20
37.01793044838092
 10
22.49808575999141
 20
37.0029304483214
 10
22.49808575999141
 20
36.9299304483212
 10
22.48308575999143
 20
36.91493044838082
 10
22.49808575999141
 20
36.89993044838082
 10
22.49808575999138
 20
36.85993044838082
 10
22.9120857599914
 20
36.85993044838082
 42
0.4142135623730951
 10
22.92208575999139
 20
36.86993044838082
 10
22.92208575999139
 20
36.90993044838082
 42
-0.4142135623730951
 10
22.93208575999141
 20
36.91993044838082
 10
22.98808575999142
 20
36.91993044838082
 42
-0.4142135623730951
 10
22.99808575999141
 20
36.90993044838081
 10
22.99808575999141
 20
36.56293044838082
 10
23.01308575999141
 20
36.54793044838083
 10
22.99808575999141
 20
36.53293044838083
 10
22.99808575999141
 20
36.18093044838083
 42
0.6693764950687069
 10
23.02372741860081
 20
36.1703590198094
 42
-0.1997729274168789
 10
23.08757737025728
 20
36.19693044838083
 10
23.09808575999141
 20
36.19693044838083
 42
-0.4142135623730743
 10
23.14808575999141
 20
36.14693044838083
 10
23.14808575999142
 20
36.05893044838083
 42
-0.4142135623730951
 10
23.09808575999141
 20
36.00893044838083
 10
23.08757737025728
 20
36.00893044838083
 42
-0.1997729274168747
 10
23.02372741860081
 20
36.03550187695226
 42
0.6693764950686888
 10
22.99808575999141
 20
36.02493044838082
 10
22.99808575999141
 20
35.94293044838083
 42
0.4142135623730951
 10
23.01808575999141
 20
35.92293044838083
 10
28.2480857599914
 20
35.92293044838083
 10
28.24808575999144
 20
38.42293044838083
  0
LWPOLYLINE
  5
5162
330
17
100
AcDbEntity
  8
R-SWTS-DET1
100
AcDbPolyline
 90
       30
 70
     1
 43
0.0
 10
28.08808575999142
 20
38.10293044838084
 10
28.02808575999141
 20
38.10293044838084
 10
28.02808575999141
 20
37.86793044838084
 10
28.08808575999142
 20
37.86793044838084
 42
-0.4142135623730971
 10
28.14808575999142
 20
37.80793044838084
 10
28.14808575999142
 20
36.53793044838082
 42
-0.4142135623730927
 10
28.08808575999142
 20
36.47793044838082
 10
28.02808575999141
 20
36.47793044838082
 10
28.02808575999141
 20
36.24293044838083
 10
28.08808575999142
 20
36.24293044838083
 42
-0.4142135623730951
 10
28.14808575999141
 20
36.18293044838083
 10
28.14808575999141
 20
36.02293044838083
 10
23.27808575999141
 20
36.02293044838082
 42
-0.4142135623730951
 10
23.24808575999141
 20
36.05293044838082
 10
23.2480857599914
 20
36.25793044838083
 42
0.4142135623730829
 10
23.2280857599914
 20
36.27793044838083
 10
23.12308575999141
 20
36.27793044838083
 10
23.12308575999141
 20
36.99577101835365
 10
23.17396766450166
 20
37.00940478357652
 42
0.3394542588633802
 10
23.24808575999141
 20
37.10599736620543
 10
23.24808575999141
 20
37.23986353055623
 42
0.3394542588633658
 10
23.17396766450166
 20
37.33645611318513
 10
23.12308575999141
 20
37.35008987840801
 10
23.12308575999141
 20
38.06793044838083
 10
23.2280857599914
 20
38.06793044838083
 42
0.4142135623730859
 10
23.2480857599914
 20
38.08793044838083
 10
23.24808575999141
 20
38.29293044838083
 42
-0.4142135623731124
 10
23.27808575999141
 20
38.32293044838083
 10
28.14808575999141
 20
38.32293044838083
 10
28.14808575999141
 20
38.16293044838083
 42
-0.4142135623730951
  0
LWPOLYLINE
  5
5163
330
17
100
AcDbEntity
  8
R-SWTS-DET2
100
AcDbPolyline
 90
       66
 70
     1
 43
0.0
 10
23.12308575999138
 20
38.02293044838145
 42
-0.4142135623731124
 10
23.15308575999138
 20
38.05293044838145
 10
23.24808575999139
 20
38.05293044838145
 10
23.24808575999139
 20
38.12293044838148
 42
-0.4142135623731124
 10
23.27808575999139
 20
38.15293044838148
 10
23.50808575999139
 20
38.15293044838148
 10
23.654298963427
 20
38.29914365181707
 42
-0.1989123673796534
 10
23.67551216686259
 20
38.30793044838148
 10
23.74808575999138
 20
38.30793044838148
 10
23.77808575999138
 20
38.27793044838148
 10
23.96808575999138
 20
38.27793044838148
 10
23.99808575999138
 20
38.30793044838148
 10
24.10743604841683
 20
38.30793044838147
 42
-0.1989123673796428
 10
24.12864925185242
 20
38.29914365181707
 10
24.59486245528804
 20
37.83293044838148
 10
27.51808575999135
 20
37.83293044838148
 10
27.51808575999135
 20
38.15293044838148
 10
27.08308575999136
 20
38.15293044838148
 42
-0.4142135623731049
 10
27.02308575999136
 20
38.21293044838148
 10
27.02308575999136
 20
38.27793044838148
 42
-0.4142135623730807
 10
27.05308575999136
 20
38.30793044838147
 10
27.24808575999136
 20
38.30793044838148
 10
27.27808575999136
 20
38.27793044838148
 10
27.46808575999136
 20
38.27793044838148
 10
27.49808575999136
 20
38.30793044838148
 10
27.58308575999135
 20
38.30793044838148
 42
-0.4142135623730948
 10
27.64308575999134
 20
38.24793044838147
 10
27.64308575999135
 20
36.09793044838144
 42
-0.4142135623730956
 10
27.58308575999135
 20
36.03793044838143
 10
27.49808575999136
 20
36.03793044838143
 10
27.46808575999136
 20
36.06793044838144
 10
27.27808575999136
 20
36.06793044838144
 10
27.24808575999136
 20
36.03793044838143
 10
27.05308575999136
 20
36.03793044838144
 42
-0.4142135623730807
 10
27.02308575999136
 20
36.06793044838144
 10
27.02308575999136
 20
36.13293044838143
 42
-0.4142135623731049
 10
27.08308575999136
 20
36.19293044838143
 10
27.51808575999135
 20
36.19293044838143
 10
27.51808575999135
 20
36.51293044838143
 10
24.59486245528804
 20
36.51293044838143
 10
24.12864925185242
 20
36.04671724494584
 42
-0.1989123673796517
 10
24.10743604841682
 20
36.03793044838143
 10
23.99808575999138
 20
36.03793044838143
 10
23.96808575999138
 20
36.06793044838144
 10
23.77808575999138
 20
36.06793044838144
 10
23.74808575999138
 20
36.03793044838143
 10
23.67551216686259
 20
36.03793044838143
 42
-0.1989123673796471
 10
23.654298963427
 20
36.04671724494584
 10
23.50808575999139
 20
36.19293044838143
 10
23.27808575999139
 20
36.19293044838143
 42
-0.4142135623731124
 10
23.24808575999139
 20
36.22293044838143
 10
23.24808575999139
 20
36.29293044838146
 10
23.15308575999138
 20
36.29293044838145
 42
-0.4142135623731124
 10
23.12308575999138
 20
36.32293044838145
 10
23.12308575999138
 20
36.38793044838145
 42
-0.4142135623730951
 10
23.15308575999138
 20
36.41793044838145
 10
23.24808575999139
 20
36.41793044838145
 10
23.24808575999139
 20
36.53293044838146
 10
23.26308575999137
 20
36.54793044838146
 10
23.24808575999139
 20
36.56293044838145
 10
23.24808575999139
 20
37.78293044838146
 10
23.26308575999137
 20
37.79793044838146
 10
23.24808575999139
 20
37.81293044838146
 10
23.24808575999139
 20
37.92793044838145
 10
23.15308575999138
 20
37.92793044838145
 42
-0.4142135623731125
 10
23.12308575999138
 20
37.95793044838145
  0
LWPOLYLINE
  5
5164
330
17
100
AcDbEntity
  8
R-SWTS-DET2
100
AcDbPolyline
 90
       46
 70
     1
 43
0.0
 10
23.43308575999138
 20
37.25293044838146
 10
23.57425470404172
 20
37.25293044838146
 42
0.2909872012781223
 10
23.62858762330528
 20
37.28747590292686
 42
-0.5639031077483408
 10
24.0880857599914
 20
37.33625527809205
 10
24.08808575999139
 20
37.28793044838145
 42
-0.4142135623731037
 10
24.02808575999138
 20
37.22793044838145
 10
23.96834855440769
 20
37.22793044838145
 42
3.73205080756965
 10
23.96834855440769
 20
37.11793044838148
 10
24.02808575999138
 20
37.11793044838146
 42
-0.4142135623731037
 10
24.08808575999139
 20
37.05793044838145
 10
24.08808575999137
 20
37.00960561867083
 42
-0.5639031077483051
 10
23.62858762330528
 20
37.05838499383599
 42
0.2909872012781288
 10
23.57425470404169
 20
37.09293044838145
 10
23.43308575999138
 20
37.09293044838145
 42
0.4142135623731038
 10
23.37308575999138
 20
37.03293044838146
 10
23.37308575999138
 20
36.88293044838146
 10
23.40808575999138
 20
36.84793044838145
 10
23.40808575999138
 20
36.31793044838143
 10
23.5080857599914
 20
36.31793044838143
 42
-0.1989123673796632
 10
23.59647410763971
 20
36.28131879602975
 10
23.68486245528803
 20
36.19293044838143
 10
24.09808575999138
 20
36.19293044838143
 10
24.50647410763972
 20
36.60131879602975
 42
-0.1989123673796512
 10
24.59486245528804
 20
36.63793044838143
 10
27.51808575999135
 20
36.63793044838143
 10
27.51808575999135
 20
36.93793044838144
 10
27.27808575999136
 20
36.93793044838144
 42
-0.4142135623730951
 10
27.21808575999136
 20
36.99793044838143
 10
27.21808575999136
 20
37.11793044838145
 10
27.27782296557506
 20
37.11793044838145
 42
3.73205080756965
 10
27.27782296557506
 20
37.22793044838145
 10
27.21808575999136
 20
37.22793044838145
 10
27.21808575999136
 20
37.34793044838147
 42
-0.4142135623730951
 10
27.27808575999136
 20
37.40793044838147
 10
27.51808575999135
 20
37.40793044838147
 10
27.51808575999135
 20
37.70793044838148
 10
24.59486245528804
 20
37.70793044838148
 42
-0.1989123673796512
 10
24.50647410763972
 20
37.74454210073316
 10
24.09808575999138
 20
38.15293044838148
 10
23.68486245528803
 20
38.15293044838148
 10
23.59647410763971
 20
38.06454210073315
 42
-0.1989123673796592
 10
23.5080857599914
 20
38.02793044838148
 10
23.40808575999138
 20
38.02793044838148
 10
23.40808575999138
 20
37.49793044838146
 10
23.37308575999138
 20
37.46293044838145
 10
23.37308575999138
 20
37.31293044838145
 42
0.4142135623731037
  0
LINE
  5
5165
330
17
100
AcDbEntity
  8
R-ANNO-DIMS
  6
ByBlock
100
AcDbLine
 10
21.69808575999141
 20
42.17293044838082
 30
0.0
 11
28.04808575999141
 21
42.17293044838082
 31
0.0
  0
TEXT
  5
5166
330
17
100
AcDbEntity
  8
R-ANNO-DIMS
  6
ByBlock
100
AcDbText
 10
24.42271058945935
 20
42.29793044838082
 30
0.0
 40
0.25
  1
6 3/4"
 72
     1
 11
24.87308575999141
 21
42.42293044838082
 31
0.0
100
AcDbText
 73
     2
  0
LINE
  5
5167
330
17
100
AcDbEntity
  8
R-SWTS-DET2
100
AcDbLine
 10
23.28784068201527
 20
38.46595083652565
 30
0.0
 11
23.28784068201527
 21
40.42293044838082
 31
0.0
  0
LWPOLYLINE
  5
516A
330
17
100
AcDbEntity
  8
R-SWTS-DET3
100
AcDbPolyline
 90
        4
 70
     0
 43
0.0
 10
22.74808575999141
 20
40.42293044838082
 10
22.74808575999141
 20
37.92293044838082
 10
22.49808575999141
 20
37.92293044838082
 10
22.49808575999141
 20
40.42293044838082
  0
LINE
  5
516B
330
17
100
AcDbEntity
  8
R-ANNO-DIMS
  6
ByBlock
100
AcDbLine
 10
19.74808575999141
 20
38.62293044838083
 30
0.0
 11
19.74808575999141
 21
40.22293044838082
 31
0.0
  0
LINE
  5
516C
330
17
100
AcDbEntity
  8
R-ANNO-DIMS
  6
ByBlock
100
AcDbLine
 10
21.37308575999141
 20
38.42293044838083
 30
0.0
 11
19.62308575999141
 21
38.42293044838083
 31
0.0
  0
LINE
  5
516D
330
17
100
AcDbEntity
  8
R-ANNO-DIMS
  6
ByBlock
100
AcDbLine
 10
21.37308575999141
 20
35.92293044838083
 30
0.0
 11
19.62308575999141
 21
35.92293044838083
 31
0.0
  0
LINE
  5
516E
330
17
100
AcDbEntity
  8
R-ANNO-DIMS
  6
ByBlock
100
AcDbLine
 10
21.37308575999141
 20
38.42293044838083
 30
0.0
 11
19.62308575999141
 21
38.42293044838083
 31
0.0
  0
LINE
  5
516F
330
17
100
AcDbEntity
  8
R-ANNO-DIMS
  6
ByBlock
100
AcDbLine
 10
21.37308575999141
 20
35.92293044838083
 30
0.0
 11
19.62308575999141
 21
35.92293044838083
 31
0.0
  0
TEXT
  5
5170
330
17
100
AcDbEntity
  8
R-ANNO-DIMS
  6
ByBlock
100
AcDbText
 10
19.62308575999141
 20
36.72255527784876
 30
0.0
 40
0.25
  1
2 1/2"
 50
90.0
 72
     1
 11
19.49808575999141
 21
37.17293044838083
 31
0.0
100
AcDbText
 73
     2
  0
LINE
  5
5171
330
17
100
AcDbEntity
  8
R-ANNO-DIMS
  6
ByBlock
100
AcDbLine
 10
19.74808575999141
 20
36.12293044838083
 30
0.0
 11
19.74808575999141
 21
38.22293044838082
 31
0.0
  0
SOLID
  5
5172
330
17
100
AcDbEntity
  8
R-ANNO-DIMS
  6
ByBlock
100
AcDbTrace
 10
19.71475242665808
 20
36.12293044838083
 30
0.0
 11
19.78141909332474
 21
36.12293044838083
 31
0.0
 12
19.74808575999141
 22
35.92293044838083
 32
0.0
 13
19.74808575999141
 23
35.92293044838083
 33
0.0
  0
SOLID
  5
5173
330
17
100
AcDbEntity
  8
R-ANNO-DIMS
  6
ByBlock
100
AcDbTrace
 10
19.71475242665808
 20
35.72293044838082
 30
0.0
 11
19.78141909332474
 21
35.72293044838082
 31
0.0
 12
19.74808575999141
 22
35.92293044838083
 32
0.0
 13
19.74808575999141
 23
35.92293044838083
 33
0.0
  0
SOLID
  5
5174
330
17
100
AcDbEntity
  8
R-ANNO-DIMS
  6
ByBlock
100
AcDbTrace
 10
19.71475242665808
 20
38.22293044838082
 30
0.0
 11
19.78141909332474
 21
38.22293044838082
 31
0.0
 12
19.74808575999141
 22
38.42293044838083
 32
0.0
 13
19.74808575999141
 23
38.42293044838083
 33
0.0
  0
SOLID
  5
5175
330
17
100
AcDbEntity
  8
R-ANNO-DIMS
  6
ByBlock
100
AcDbTrace
 10
19.71475242665808
 20
38.62293044838083
 30
0.0
 11
19.78141909332474
 21
38.62293044838083
 31
0.0
 12
19.74808575999141
 22
38.42293044838083
 32
0.0
 13
19.74808575999141
 23
38.42293044838083
 33
0.0
  0
TEXT
  5
5176
330
17
100
AcDbEntity
  8
R-ANNO-DIMS
  6
ByBlock
100
AcDbText
 10
19.62308575999141
 20
39.06387519599338
 30
0.0
 40
0.25
  1
DLO
 50
90.0
 72
     1
 11
19.49808575999141
 21
39.42293044838083
 31
0.0
100
AcDbText
 73
     2
  0
LINE
  5
5177
330
17
100
AcDbEntity
  8
R-SWTS-DET2
100
AcDbLine
 10
22.49808575999141
 20
37.48593044838082
 30
0.0
 11
22.49808575999141
 21
37.79793044838083
 31
0.0
  0
LINE
  5
5178
330
17
100
AcDbEntity
  8
R-SWTS-DET2
100
AcDbLine
 10
22.87308575999141
 20
37.79793044838083
 30
0.0
 11
22.87308575999141
 21
37.48593044838082
 31
0.0
  0
LWPOLYLINE
  5
5179
330
17
100
AcDbEntity
  8
R-SWTS-DET3
100
AcDbPolyline
 90
        5
 70
     0
 43
0.0
 10
22.14808575999142
 20
37.49793044838083
 10
22.24808575999141
 20
37.79793044838082
 10
22.14808575999142
 20
37.79793044838082
 10
22.24808575999141
 20
37.48593044838082
 10
22.1360857599914
 20
37.48593044838082
  0
LWPOLYLINE
  5
517A
330
17
100
AcDbEntity
  8
R-SWTS-DET2
100
AcDbPolyline
 90
        8
 70
     1
 43
0.0
 10
23.13008575999142
 20
37.90593044838015
 10
22.99808575999141
 20
38.01693044838016
 10
22.99808575999141
 20
37.57893044838016
 10
23.13008575999142
 20
37.68993044838016
 10
23.6607444731477
 20
37.68993044838016
 10
23.85456626296237
 20
37.77021406240482
 42
0.6681786379193252
 10
23.85456626296237
 20
37.8256468343555
 10
23.6607444731477
 20
37.90593044838015
  0
LWPOLYLINE
  5
517B
330
17
100
AcDbEntity
  8
R-SWTS-DET1
100
AcDbPolyline
 90
       14
 70
     1
 43
0.0
 10
21.55808575999142
 20
38.37293044838082
 10
21.9220857599914
 20
38.37293044838083
 10
21.9220857599914
 20
38.3429304483808
 42
1.0
 10
22.0020857599914
 20
38.3429304483808
 10
22.0020857599914
 20
38.36293044838082
 42
0.4142135623730908
 10
21.9420857599914
 20
38.42293044838083
 10
21.49808575999141
 20
38.42293044838083
 10
21.49808575999141
 20
35.92293044838083
 10
21.9420857599914
 20
35.92293044838083
 42
0.4142135623730907
 10
22.0020857599914
 20
35.98293044838083
 10
22.0020857599914
 20
36.00293044838085
 42
1.0
 10
21.9220857599914
 20
36.00293044838085
 10
21.9220857599914
 20
35.97293044838082
 10
21.55808575999142
 20
35.97293044838083
  0
LWPOLYLINE
  5
517C
330
17
100
AcDbEntity
  8
R-SWTS-DET1
100
AcDbPolyline
 90
       59
 70
     1
 43
0.0
 10
22.01208575999142
 20
36.23693044838081
 10
22.01208575999142
 20
36.12293044838085
 10
21.87726109079926
 20
36.12293044838085
 10
21.77208575999141
 20
36.18365345393487
 42
1.000000000000009
 10
21.73208575999142
 20
36.11437142163211
 10
21.91471488286213
 20
36.00893044838085
 42
-0.849090458656993
 10
22.01208575999141
 20
35.99293044838085
 10
22.01208575999141
 20
35.95293044838083
 42
0.4142135623731122
 10
22.04208575999141
 20
35.92293044838083
 10
22.22808575999142
 20
35.92293044838083
 42
0.4142135623730951
 10
22.24808575999141
 20
35.94293044838082
 10
22.24808575999141
 20
36.02493044838082
 42
0.6693764950686889
 10
22.222444101382
 20
36.03550187695226
 42
-0.1997729274168814
 10
22.15859414972555
 20
36.00893044838083
 10
22.14808575999142
 20
36.00893044838083
 42
-0.4142135623731054
 10
22.09808575999141
 20
36.05893044838082
 10
22.09808575999142
 20
36.14693044838082
 42
-0.4142135623730951
 10
22.14808575999142
 20
36.19693044838082
 10
22.15859414972555
 20
36.19693044838083
 42
-0.1997729274168702
 10
22.22244410138201
 20
36.1703590198094
 42
0.6693764950687497
 10
22.24808575999141
 20
36.18093044838083
 10
22.24808575999141
 20
36.94793044838083
 10
22.26308575999141
 20
36.96293044838082
 10
22.24808575999141
 20
36.97793044838082
 10
22.24808575999141
 20
37.36793044838083
 10
22.26308575999141
 20
37.38293044838083
 10
22.24808575999141
 20
37.39793044838082
 10
22.24808575999141
 20
38.16493044838083
 42
0.6693764950687072
 10
22.22244410138201
 20
38.17550187695225
 42
-0.1997729274168761
 10
22.15859414972555
 20
38.14893044838083
 10
22.14808575999142
 20
38.14893044838083
 42
-0.4142135623730951
 10
22.09808575999142
 20
38.19893044838083
 10
22.09808575999141
 20
38.28693044838083
 42
-0.4142135623731054
 10
22.14808575999142
 20
38.33693044838083
 10
22.15859414972555
 20
38.33693044838083
 42
-0.1997729274168748
 10
22.222444101382
 20
38.31035901980939
 42
0.6693764950686886
 10
22.24808575999141
 20
38.32093044838083
 10
22.24808575999141
 20
38.40293044838083
 42
0.4142135623730951
 10
22.22808575999142
 20
38.42293044838083
 10
22.04208575999141
 20
38.42293044838083
 42
0.4142135623731039
 10
22.01208575999142
 20
38.39293044838083
 10
22.01208575999142
 20
38.3529304483808
 42
-0.8490904586570017
 10
21.9147148828621
 20
38.3369304483808
 10
21.73208575999142
 20
38.23148947512954
 42
1.000000000000009
 10
21.77208575999141
 20
38.16220744282679
 10
21.87726109079926
 20
38.2229304483808
 10
22.01208575999142
 20
38.2229304483808
 10
22.01208575999142
 20
38.10893044838085
 42
0.4142135623730516
 10
22.07208575999139
 20
38.04893044838085
 10
22.14808575999142
 20
38.04893044838083
 10
22.14808575999142
 20
37.49793044838083
 10
22.12308575999141
 20
37.47293044838083
 10
22.12308575999141
 20
37.18793044838083
 10
22.13808575999141
 20
37.17293044838083
 10
22.12308575999141
 20
37.15793044838083
 10
22.12308575999141
 20
36.87293044838082
 10
22.14808575999142
 20
36.84793044838083
 10
22.14808575999142
 20
36.29693044838082
 10
22.07208575999139
 20
36.29693044838081
 42
0.4142135623730518
  0
LINE
  5
517D
330
17
100
AcDbEntity
  8
R-SWTS-DET3
100
AcDbLine
 10
21.71408575999142
 20
37.64193044838082
 30
0.0
 11
22.58356205472212
 21
37.64193044838082
 31
0.0
  0
LINE
  5
517E
330
17
100
AcDbEntity
  8
R-SWTS-DET2
100
AcDbLine
 10
22.12308575999144
 20
37.04754044838083
 30
0.0
 11
22.78808575999143
 21
37.04754044838083
 31
0.0
  0
LINE
  5
517F
330
17
100
AcDbEntity
  8
R-SWTS-DET2
100
AcDbLine
 10
22.12308575999144
 20
37.29831044838082
 30
0.0
 11
22.78808575999143
 21
37.29831044838082
 31
0.0
  0
LINE
  5
5180
330
17
100
AcDbEntity
  8
R-SWTS-DET2
100
AcDbLine
 10
22.24808575999141
 20
36.85993044838083
 30
0.0
 11
22.49808575999141
 21
36.85993044838083
 31
0.0
  0
LINE
  5
5181
330
17
100
AcDbEntity
  8
R-SWTS-DET2
100
AcDbLine
 10
22.49808575999141
 20
37.48593044838082
 30
0.0
 11
22.24808575999141
 21
37.48593044838082
 31
0.0
  0
LINE
  5
5182
330
17
100
AcDbEntity
  8
R-SWTS-DET2
100
AcDbLine
 10
22.24833083796756
 20
36.40254482431974
 30
0.0
 11
22.49499036094686
 21
36.40254482431974
 31
0.0
  0
LINE
  5
5186
330
17
100
AcDbEntity
  8
R-SWTS-DET3
100
AcDbLine
 10
21.71408575999142
 20
35.90040759226603
 30
0.0
 11
21.71408575999142
 21
37.64193044838082
 31
0.0
  0
SOLID
  5
5187
330
17
100
AcDbEntity
  8
R-SWTS-DET3
100
AcDbTrace
 10
21.74741909332475
 20
35.90040759226603
 30
0.0
 11
21.68075242665807
 21
35.90040759226603
 31
0.0
 12
21.71408575999142
 22
35.70040759226603
 32
0.0
 13
21.71408575999142
 23
35.70040759226603
 33
0.0
  0
LWPOLYLINE
  5
5188
330
17
100
AcDbEntity
  8
R-SWTS-DET3
100
AcDbPolyline
 90
        4
 70
     1
 43
0.0
 10
21.87008575999141
 20
35.92293044838083
 10
21.55808575999142
 20
35.97293044838082
 10
21.55808575999142
 20
35.92293044838083
 10
21.87008575999141
 20
35.97293044838082
  0
LINE
  5
518C
330
17
100
AcDbEntity
  8
R-SWTS-DET2
100
AcDbLine
 10
21.94340575999143
 20
36.97001044838083
 30
0.0
 11
22.08308575999144
 21
36.97001044838083
 31
0.0
  0
LINE
  5
518D
330
17
100
AcDbEntity
  8
R-SWTS-DET2
100
AcDbLine
 10
21.94340575999143
 20
37.37584044838083
 30
0.0
 11
22.08308575999144
 21
37.37584044838083
 31
0.0
  0
LINE
  5
518E
330
17
100
AcDbEntity
  8
R-SWTS-DET2
100
AcDbLine
 10
21.94340575999143
 20
37.27438544838083
 30
0.0
 11
22.08308575999144
 21
37.27438544838083
 31
0.0
  0
LINE
  5
518F
330
17
100
AcDbEntity
  8
R-SWTS-DET2
100
AcDbLine
 10
21.94340575999143
 20
37.07146544838083
 30
0.0
 11
22.08308575999144
 21
37.07146544838083
 31
0.0
  0
ARC
  5
5190
330
17
100
AcDbEntity
  8
R-SWTS-DET2
100
AcDbCircle
 10
21.96279075999143
 20
37.02073544838083
 30
0.0
 40
0.0543126
100
AcDbArc
 50
110.9107
 51
249.0893
  0
LINE
  5
5191
330
17
100
AcDbEntity
  8
R-SWTS-DET2
100
AcDbLine
 10
21.93948075999143
 20
37.35952044838083
 30
0.0
 11
21.93948075999143
 21
36.98633044838083
 31
0.0
  0
LINE
  5
5192
330
17
100
AcDbEntity
  8
R-SWTS-DET2
100
AcDbLine
 10
21.90848075999143
 20
37.32511044838083
 30
0.0
 11
21.90848075999143
 21
37.02073544838083
 31
0.0
  0
LINE
  5
5193
330
17
100
AcDbEntity
  8
R-SWTS-DET2
100
AcDbLine
 10
21.92077575999143
 20
36.98633044838083
 30
0.0
 11
21.93948075999143
 21
36.98633044838083
 31
0.0
  0
ARC
  5
5194
330
17
100
AcDbEntity
  8
R-SWTS-DET2
100
AcDbCircle
 10
22.07333075999144
 20
37.17293044838083
 30
0.0
 40
0.16484915
100
AcDbArc
 50
142.0123
 51
217.9877
  0
ARC
  5
5195
330
17
100
AcDbEntity
  8
R-SWTS-DET2
100
AcDbCircle
 10
21.96279075999143
 20
37.32511044838083
 30
0.0
 40
0.0543126
100
AcDbArc
 50
110.9107
 51
249.0893
  0
LINE
  5
5196
330
17
100
AcDbEntity
  8
R-SWTS-DET2
100
AcDbLine
 10
21.92077575999143
 20
37.35952044838083
 30
0.0
 11
21.93948075999143
 21
37.35952044838083
 31
0.0
  0
LINE
  5
5197
330
17
100
AcDbEntity
  8
R-SWTS-DET2
100
AcDbLine
 10
22.08308575999144
 20
37.42293044838083
 30
0.0
 11
22.08308575999144
 21
36.92293044838083
 31
0.0
  0
LINE
  5
5198
330
17
100
AcDbEntity
  8
R-SWTS-DET1
100
AcDbLine
 10
22.12308575999144
 20
37.42293044838083
 30
0.0
 11
22.12308575999144
 21
36.92293044838083
 31
0.0
  0
LINE
  5
5199
330
17
100
AcDbEntity
  8
R-SWTS-DET1
100
AcDbLine
 10
22.08308575999144
 20
36.92293044838083
 30
0.0
 11
22.12308575999144
 21
36.92293044838083
 31
0.0
  0
LINE
  5
519A
330
17
100
AcDbEntity
  8
R-SWTS-DET1
100
AcDbLine
 10
22.08308575999144
 20
37.42293044838083
 30
0.0
 11
22.12308575999144
 21
37.42293044838083
 31
0.0
  0
LINE
  5
519B
330
17
100
AcDbEntity
  8
R-SWTS-DET1
100
AcDbLine
 10
22.24808575999141
 20
37.03993044838082
 30
0.0
 11
22.12308575999141
 21
37.03993044838082
 31
0.0
  0
LINE
  5
519C
330
17
100
AcDbEntity
  8
R-SWTS-DET1
100
AcDbLine
 10
22.24808575999141
 20
37.30593044838082
 30
0.0
 11
22.12308575999141
 21
37.30593044838082
 31
0.0
  0
LINE
  5
519D
330
17
100
AcDbEntity
  8
R-SWTS-DET1
100
AcDbLine
 10
22.24808575999141
 20
36.85993044838083
 30
0.0
 11
22.24808575999141
 21
36.92243044838083
 31
0.0
  0
LINE
  5
519E
330
17
100
AcDbEntity
  8
R-SWTS-DET1
100
AcDbLine
 10
22.24808575999141
 20
37.42343044838082
 30
0.0
 11
22.24808575999141
 21
37.48593044838082
 31
0.0
  0
LINE
  5
519F
330
17
100
AcDbEntity
  8
R-SWTS-DET2
100
AcDbLine
 10
23.85456626296237
 20
36.52021406240616
 30
0.0
 11
23.6607444731477
 21
36.4399304483815
 31
0.0
  0
LINE
  5
51A0
330
17
100
AcDbEntity
  8
R-SWTS-DET2
100
AcDbLine
 10
22.99808575999141
 20
36.32893044838149
 30
0.0
 11
22.99808575999141
 21
36.76693044838149
 31
0.0
  0
LINE
  5
51A1
330
17
100
AcDbEntity
  8
R-SWTS-DET2
100
AcDbLine
 10
23.6607444731477
 20
36.4399304483815
 30
0.0
 11
23.13008575999142
 21
36.4399304483815
 31
0.0
  0
LINE
  5
51A2
330
17
100
AcDbEntity
  8
R-SWTS-DET2
100
AcDbLine
 10
23.24808575999137
 20
36.45693044838136
 30
0.0
 11
23.40808575999137
 21
36.45693044838136
 31
0.0
  0
LINE
  5
51A4
330
17
100
AcDbEntity
  8
R-SWTS-DET2
100
AcDbLine
 10
23.13008575999142
 20
36.4399304483815
 30
0.0
 11
22.99808575999141
 21
36.32893044838149
 31
0.0
  0
LINE
  5
51AA
330
17
100
AcDbEntity
  8
R-SWTS-DET2
100
AcDbLine
 10
23.13008575999142
 20
36.65593044838149
 30
0.0
 11
23.6607444731477
 21
36.65593044838149
 31
0.0
  0
LINE
  5
51AB
330
17
100
AcDbEntity
  8
R-SWTS-DET2
100
AcDbLine
 10
23.24808575999137
 20
36.63893044838136
 30
0.0
 11
23.40808575999137
 21
36.63893044838136
 31
0.0
  0
LINE
  5
51AC
330
17
100
AcDbEntity
  8
R-SWTS-DET2
100
AcDbLine
 10
23.12308575999144
 20
37.17293044838083
 30
0.0
 11
22.78808575999143
 21
37.29831044838082
 31
0.0
  0
LINE
  5
51AD
330
17
100
AcDbEntity
  8
R-SWTS-DET2
100
AcDbLine
 10
22.78808575999143
 20
37.04754044838083
 30
0.0
 11
23.12308575999144
 21
37.17293044838083
 31
0.0
  0
LINE
  5
51AE
330
17
100
AcDbEntity
  8
R-SWTS-DET1
100
AcDbLine
 10
22.87308575999141
 20
37.48593044838082
 30
0.0
 11
22.49808575999141
 21
37.48593044838082
 31
0.0
  0
LINE
  5
51AF
330
17
100
AcDbEntity
  8
R-SWTS-DET1
100
AcDbLine
 10
22.49808575999141
 20
36.85993044838083
 30
0.0
 11
22.49808575999141
 21
36.92243044838083
 31
0.0
  0
LINE
  5
51B0
330
17
100
AcDbEntity
  8
R-SWTS-DET1
100
AcDbLine
 10
22.49808575999141
 20
37.42343044838082
 30
0.0
 11
22.49808575999141
 21
37.48593044838082
 31
0.0
  0
LINE
  5
51B1
330
17
100
AcDbEntity
  8
R-SWTS-DET2
100
AcDbLine
 10
22.99808575999141
 20
36.76693044838149
 30
0.0
 11
23.13008575999142
 21
36.65593044838149
 31
0.0
  0
LINE
  5
51B2
330
17
100
AcDbEntity
  8
R-SWTS-DET2
100
AcDbLine
 10
23.85608579999142
 20
37.09118052838082
 30
0.0
 11
23.85608579999142
 21
37.04343044838083
 31
0.0
  0
LINE
  5
51B3
330
17
100
AcDbEntity
  8
R-SWTS-DET2
100
AcDbLine
 10
23.85608579999142
 20
37.30243044838083
 30
0.0
 11
23.85608579999142
 21
37.25468036838083
 31
0.0
  0
LINE
  5
51B4
330
17
100
AcDbEntity
  8
R-SWTS-DET2
100
AcDbLine
 10
23.89008577999142
 20
37.30243044838083
 30
0.0
 11
23.89008577999142
 21
37.25468036838083
 31
0.0
  0
LINE
  5
51B5
330
17
100
AcDbEntity
  8
R-SWTS-DET2
100
AcDbLine
 10
23.74358575999143
 20
37.18993044838082
 30
0.0
 11
23.79133583999142
 21
37.18993044838082
 31
0.0
  0
LINE
  5
51B6
330
17
100
AcDbEntity
  8
R-SWTS-DET2
100
AcDbLine
 10
23.74358575999143
 20
37.15593044838082
 30
0.0
 11
23.79133583999142
 21
37.15593044838082
 31
0.0
  0
LINE
  5
51B7
330
17
100
AcDbEntity
  8
R-SWTS-DET2
100
AcDbLine
 10
23.95483573999142
 20
37.18993044838082
 30
0.0
 11
24.00258575999142
 21
37.18993044838082
 31
0.0
  0
LINE
  5
51B8
330
17
100
AcDbEntity
  8
R-SWTS-DET2
100
AcDbLine
 10
23.95483573999142
 20
37.15593044838082
 30
0.0
 11
24.00258575999142
 21
37.15593044838082
 31
0.0
  0
LINE
  5
51B9
330
17
100
AcDbEntity
  8
R-SWTS-DET2
100
AcDbLine
 10
24.00258575999142
 20
37.18993044838082
 30
0.0
 11
24.00258575999142
 21
37.15593044838082
 31
0.0
  0
LINE
  5
51BA
330
17
100
AcDbEntity
  8
R-SWTS-DET2
100
AcDbLine
 10
23.89008577999142
 20
37.09118052838082
 30
0.0
 11
23.89008577999142
 21
37.04343044838083
 31
0.0
  0
LINE
  5
51BB
330
17
100
AcDbEntity
  8
R-SWTS-DET2
100
AcDbLine
 10
23.74358575999143
 20
37.18993044838082
 30
0.0
 11
23.74358575999143
 21
37.15593044838082
 31
0.0
  0
LINE
  5
51BC
330
17
100
AcDbEntity
  8
R-SWTS-DET2
100
AcDbLine
 10
23.85608579999142
 20
37.30243044838083
 30
0.0
 11
23.89008577999142
 21
37.30243044838083
 31
0.0
  0
LINE
  5
51BD
330
17
100
AcDbEntity
  8
R-SWTS-DET2
100
AcDbLine
 10
23.85608579999142
 20
37.04343044838083
 30
0.0
 11
23.89008577999142
 21
37.04343044838083
 31
0.0
  0
CIRCLE
  5
51BE
330
17
100
AcDbEntity
  8
R-SWTS-DET2
100
AcDbCircle
 10
23.87308575999143
 20
37.17293044838083
 30
0.0
 40
0.2125
  0
ARC
  5
51BF
330
17
100
AcDbEntity
  8
R-SWTS-DET2
100
AcDbCircle
 10
23.79133583999142
 20
37.25468036838083
 30
0.0
 40
0.06474996
100
AcDbArc
 50
270.0
 51
0.0
  0
ARC
  5
51C0
330
17
100
AcDbEntity
  8
R-SWTS-DET2
100
AcDbCircle
 10
23.95483573999142
 20
37.25468036838083
 30
0.0
 40
0.06474996
100
AcDbArc
 50
180.0
 51
270.0
  0
ARC
  5
51C1
330
17
100
AcDbEntity
  8
R-SWTS-DET2
100
AcDbCircle
 10
23.95483573999142
 20
37.09118052838082
 30
0.0
 40
0.06474996
100
AcDbArc
 50
89.99996999999998
 51
180.0
  0
ARC
  5
51C2
330
17
100
AcDbEntity
  8
R-SWTS-DET2
100
AcDbCircle
 10
23.79133583999142
 20
37.09118052838082
 30
0.0
 40
0.06474996
100
AcDbArc
 50
0.0
 51
89.99990999999999
  0
LINE
  5
51C3
330
17
100
AcDbEntity
  8
R-SWTS-DET2
100
AcDbLine
 10
23.6607444731477
 20
36.65593044838149
 30
0.0
 11
23.85456626296237
 21
36.57564683435683
 31
0.0
  0
ARC
  5
51C4
330
17
100
AcDbEntity
  8
R-SWTS-DET2
100
AcDbCircle
 10
23.84308575999141
 20
36.54793044838149
 30
0.0
 40
0.0299999999999996
100
AcDbArc
 50
292.4999999999979
 51
67.50000000000217
  0
LINE
  5
51C5
330
17
100
AcDbEntity
  8
R-SWTS-DET2
100
AcDbLine
 10
22.24833083796756
 20
37.94331607244192
 30
0.0
 11
22.49833083796756
 21
37.94331607244192
 31
0.0
  0
LINE
  5
51C6
330
17
100
AcDbEntity
  8
R-SWTS-DET2
100
AcDbLine
 10
22.49833083796756
 20
38.55985150551278
 30
0.0
 11
21.95833083796757
 21
38.48331607244191
 31
0.0
  0
LINE
  5
51C7
330
17
100
AcDbEntity
  8
R-SWTS-DET2
100
AcDbLine
 10
21.95833083796757
 20
38.48331607244191
 30
0.0
 11
21.95833083796755
 21
38.42331607244191
 31
0.0
  0
LINE
  5
51C8
330
17
100
AcDbEntity
  8
R-SWTS-DET2
100
AcDbLine
 10
21.95833083796755
 20
38.42331607244191
 30
0.0
 11
22.07396169568089
 21
38.42331607244191
 31
0.0
  0
LINE
  5
51C9
330
17
100
AcDbEntity
  8
R-SWTS-DET2
100
AcDbLine
 10
23.24808575999137
 20
37.88893044838137
 30
0.0
 11
23.40808575999137
 21
37.88893044838137
 31
0.0
  0
LINE
  5
51CA
330
17
100
AcDbEntity
  8
R-SWTS-DET2
100
AcDbLine
 10
23.24808575999137
 20
37.70693044838136
 30
0.0
 11
23.40808575999137
 21
37.70693044838136
 31
0.0
  0
LINE
  5
51CB
330
17
100
AcDbEntity
  8
R-SWTS-DET2
100
AcDbLine
 10
23.28784068201526
 20
38.48331607244191
 30
0.0
 11
23.28784068201527
 21
38.42331607244191
 31
0.0
  0
LINE
  5
51CC
330
17
100
AcDbEntity
  8
R-SWTS-DET2
100
AcDbLine
 10
22.43558575999141
 20
37.92293044838082
 30
0.0
 11
22.93558575999141
 21
37.92293044838082
 31
0.0
  0
LINE
  5
51CD
330
17
100
AcDbEntity
  8
R-SWTS-DET1
100
AcDbLine
 10
22.74858575999141
 20
37.92293044838082
 30
0.0
 11
22.49858575999141
 21
37.92293044838082
 31
0.0
  0
LINE
  5
51CE
330
17
100
AcDbEntity
  8
R-SWTS-DET2
100
AcDbLine
 10
22.99784068201526
 20
37.94331607244192
 30
0.0
 11
22.74784068201527
 21
37.94331607244192
 31
0.0
  0
LINE
  5
51CF
330
17
100
AcDbEntity
  8
R-SWTS-DET2
100
AcDbLine
 10
22.74784068201527
 20
38.55985150551278
 30
0.0
 11
23.28784068201526
 21
38.48331607244191
 31
0.0
  0
LINE
  5
51D0
330
17
100
AcDbEntity
  8
R-SWTS-DET2
100
AcDbLine
 10
23.28784068201527
 20
38.42331607244191
 30
0.0
 11
23.17220982430192
 21
38.42331607244191
 31
0.0
  0
LINE
  5
51D1
330
17
100
AcDbEntity
  8
R-SWTS-DET2
100
AcDbLine
 10
22.49808575999141
 20
37.79793044838083
 30
0.0
 11
22.43558575999141
 21
37.79793044838083
 31
0.0
  0
LINE
  5
51D2
330
17
100
AcDbEntity
  8
R-SWTS-DET2
100
AcDbLine
 10
22.93558575999141
 20
37.79793044838083
 30
0.0
 11
22.87308575999141
 21
37.79793044838083
 31
0.0
  0
ARC
  5
51D3
330
17
100
AcDbEntity
  8
R-SWTS-DET2
100
AcDbCircle
 10
22.43558575999141
 20
37.86043044838083
 30
0.0
 40
0.0625
100
AcDbArc
 50
90.0
 51
270.0
  0
ARC
  5
51D4
330
17
100
AcDbEntity
  8
R-SWTS-DET2
100
AcDbCircle
 10
22.93558575999141
 20
37.86043044838083
 30
0.0
 40
0.0625
100
AcDbArc
 50
270.0
 51
90.0
  0
SOLID
  5
51D5
330
17
100
AcDbEntity
  8
R-ANNO-DIMS
  6
ByBlock
100
AcDbTrace
 10
19.71475242665808
 20
40.22293044838082
 30
0.0
 11
19.78141909332474
 21
40.22293044838082
 31
0.0
 12
19.74808575999141
 22
40.42293044838082
 32
0.0
 13
19.74808575999141
 23
40.42293044838082
 33
0.0
  0
LINE
  5
51D6
330
17
100
AcDbEntity
  8
R-ANNO-DIMS
  6
ByBlock
100
AcDbLine
 10
21.49808575999141
 20
40.54793044838082
 30
0.0
 11
21.49808575999141
 21
42.29793044838082
 31
0.0
  0
SOLID
  5
51D7
330
17
100
AcDbEntity
  8
R-ANNO-DIMS
  6
ByBlock
100
AcDbTrace
 10
21.69808575999141
 20
42.20626378171416
 30
0.0
 11
21.69808575999141
 21
42.13959711504749
 31
0.0
 12
21.49808575999141
 22
42.17293044838082
 32
0.0
 13
21.49808575999141
 23
42.17293044838082
 33
0.0
  0
LINE
  5
51D8
330
17
100
AcDbEntity
  8
R-SWTS-DET1
100
AcDbLine
 10
28.24808575999141
 20
38.42293044838083
 30
0.0
 11
28.24808575999141
 21
40.42293044838082
 31
0.0
  0
LINE
  5
51DA
330
17
100
AcDbEntity
  8
R-SWTS-DET1
100
AcDbLine
 10
28.24808575999144
 20
35.92293044838084
 30
0.0
 11
28.24808575999144
 21
35.94193044838082
 31
0.0
  0
CIRCLE
  5
51DB
330
17
100
AcDbEntity
  8
R-SWTS-DET2
100
AcDbCircle
 10
27.37308575999146
 20
37.17293044838083
 30
0.0
 40
0.2125
  0
ARC
  5
51DC
330
17
100
AcDbEntity
  8
R-SWTS-DET2
100
AcDbCircle
 10
27.29133583999145
 20
37.25468036838083
 30
0.0
 40
0.06474996
100
AcDbArc
 50
270.0
 51
0.0
  0
ARC
  5
51DD
330
17
100
AcDbEntity
  8
R-SWTS-DET2
100
AcDbCircle
 10
27.29133583999145
 20
37.09118052838082
 30
0.0
 40
0.06474996
100
AcDbArc
 50
0.0
 51
89.99990999999999
  0
LINE
  5
51DE
330
17
100
AcDbEntity
  8
R-SWTS-DET2
100
AcDbLine
 10
27.24358575999145
 20
37.18993044838083
 30
0.0
 11
27.29133583999145
 21
37.18993044838083
 31
0.0
  0
LINE
  5
51DF
330
17
100
AcDbEntity
  8
R-SWTS-DET2
100
AcDbLine
 10
27.24358575999145
 20
37.15593044838083
 30
0.0
 11
27.29133583999145
 21
37.15593044838083
 31
0.0
  0
LINE
  5
51E0
330
17
100
AcDbEntity
  8
R-SWTS-DET2
100
AcDbLine
 10
27.24358575999145
 20
37.18993044838083
 30
0.0
 11
27.24358575999145
 21
37.15593044838083
 31
0.0
  0
LINE
  5
51E1
330
17
100
AcDbEntity
  8
R-SWTS-DET2
100
AcDbLine
 10
27.35608579999145
 20
37.09118052838082
 30
0.0
 11
27.35608579999145
 21
37.04343044838083
 31
0.0
  0
LINE
  5
51E2
330
17
100
AcDbEntity
  8
R-SWTS-DET2
100
AcDbLine
 10
27.35608579999145
 20
37.30243044838083
 30
0.0
 11
27.35608579999145
 21
37.25468036838083
 31
0.0
  0
LINE
  5
51E3
330
17
100
AcDbEntity
  8
R-SWTS-DET2
100
AcDbLine
 10
27.39008577999145
 20
37.30243044838083
 30
0.0
 11
27.39008577999145
 21
37.25468036838083
 31
0.0
  0
LINE
  5
51E4
330
17
100
AcDbEntity
  8
R-SWTS-DET2
100
AcDbLine
 10
27.45483573999145
 20
37.18993044838083
 30
0.0
 11
27.50258575999145
 21
37.18993044838083
 31
0.0
  0
LINE
  5
51E5
330
17
100
AcDbEntity
  8
R-SWTS-DET2
100
AcDbLine
 10
27.45483573999145
 20
37.15593044838083
 30
0.0
 11
27.50258575999145
 21
37.15593044838083
 31
0.0
  0
LINE
  5
51E6
330
17
100
AcDbEntity
  8
R-SWTS-DET2
100
AcDbLine
 10
27.50258575999145
 20
37.18993044838083
 30
0.0
 11
27.50258575999145
 21
37.15593044838083
 31
0.0
  0
LINE
  5
51E7
330
17
100
AcDbEntity
  8
R-SWTS-DET2
100
AcDbLine
 10
27.39008577999145
 20
37.09118052838082
 30
0.0
 11
27.39008577999145
 21
37.04343044838083
 31
0.0
  0
LINE
  5
51E8
330
17
100
AcDbEntity
  8
R-SWTS-DET2
100
AcDbLine
 10
27.35608579999145
 20
37.30243044838083
 30
0.0
 11
27.39008577999145
 21
37.30243044838083
 31
0.0
  0
LINE
  5
51E9
330
17
100
AcDbEntity
  8
R-SWTS-DET2
100
AcDbLine
 10
27.35608579999145
 20
37.04343044838083
 30
0.0
 11
27.39008577999145
 21
37.04343044838083
 31
0.0
  0
ARC
  5
51EA
330
17
100
AcDbEntity
  8
R-SWTS-DET2
100
AcDbCircle
 10
27.45483573999145
 20
37.25468036838083
 30
0.0
 40
0.06474996
100
AcDbArc
 50
180.0
 51
270.0
  0
ARC
  5
51EB
330
17
100
AcDbEntity
  8
R-SWTS-DET2
100
AcDbCircle
 10
27.45483573999145
 20
37.09118052838082
 30
0.0
 40
0.06474996
100
AcDbArc
 50
89.99996999999998
 51
180.0
  0
TEXT
  5
51EC
330
17
100
AcDbEntity
  8
PART_NUMBERS
100
AcDbText
 10
28.83022463566227
 20
37.24141207713641
 30
0.0
 40
0.25
  1
162006 COVER
100
AcDbText
  0
LINE
  5
51ED
330
17
100
AcDbEntity
  8
R-ANNO-DIMS
  6
ByBlock
100
AcDbLine
 10
28.24808575999141
 20
40.52610102928895
 30
0.0
 11
28.24808575999141
 21
42.29793044838082
 31
0.0
  0
SOLID
  5
51EE
330
17
100
AcDbEntity
  8
R-ANNO-DIMS
  6
ByBlock
100
AcDbTrace
 10
28.04808575999141
 20
42.20626378171416
 30
0.0
 11
28.04808575999141
 21
42.13959711504749
 31
0.0
 12
28.24808575999141
 22
42.17293044838082
 32
0.0
 13
28.24808575999141
 23
42.17293044838082
 33
0.0
  0
LINE
  5
5401
330
17
100
AcDbEntity
  8
R-SWTS-DET1
100
AcDbLine
 10
28.24808575999141
 20
33.79602427014565
 30
0.0
 11
28.24808575999141
 21
32.08996798284137
 31
0.0
  0
LINE
  5
5405
330
17
100
AcDbEntity
  8
R-SWTS-DET1
100
AcDbLine
 10
22.99499036094692
 20
36.22164776410844
 30
0.0
 11
22.99499036094692
 21
36.12164776410843
 31
0.0
  0
LINE
  5
5406
330
17
100
AcDbEntity
  8
R-SWTS-DET1
100
AcDbLine
 10
22.99499036094692
 20
36.12164776410843
 30
0.0
 11
23.09499036094691
 21
36.12164776410843
 31
0.0
  0
ARC
  5
5407
330
17
100
AcDbEntity
  8
R-SWTS-DET1
100
AcDbCircle
 10
23.09499036094691
 20
36.09164776410843
 30
0.0
 40
0.0299999999999998
100
AcDbArc
 50
310.7806619637362
 51
90.0
  0
LINE
  5
5408
330
17
100
AcDbEntity
  8
R-SWTS-DET1
100
AcDbLine
 10
23.11458531309363
 20
36.06893129760574
 30
0.0
 11
23.06978783702027
 21
36.03028953085709
 31
0.0
  0
ARC
  5
5409
330
17
100
AcDbEntity
  8
R-SWTS-DET1
100
AcDbCircle
 10
23.05999036094691
 20
36.04164776410844
 30
0.0
 40
0.0149999999999999
100
AcDbArc
 50
180.0000000000136
 51
310.7806619637197
  0
LINE
  5
540A
330
17
100
AcDbEntity
  8
R-SWTS-DET1
100
AcDbLine
 10
23.04499036094691
 20
36.04164776410843
 30
0.0
 11
23.04499036094691
 21
36.06164776410844
 31
0.0
  0
LINE
  5
540B
330
17
100
AcDbEntity
  8
R-SWTS-DET1
100
AcDbLine
 10
23.04499036094691
 20
36.06164776410844
 30
0.0
 11
22.81599036094686
 21
36.06164776410844
 31
0.0
  0
LINE
  5
540C
330
17
100
AcDbEntity
  8
R-SWTS-DET1
100
AcDbLine
 10
22.81599036094686
 20
36.06164776410844
 30
0.0
 11
22.81599036094686
 21
35.79964776410842
 31
0.0
  0
LINE
  5
540D
330
17
100
AcDbEntity
  8
R-SWTS-DET1
100
AcDbLine
 10
22.81599036094686
 20
35.79964776410842
 30
0.0
 11
22.74299036094685
 21
35.79964776410842
 31
0.0
  0
ARC
  5
540E
330
17
100
AcDbEntity
  8
R-SWTS-DET1
100
AcDbCircle
 10
22.74299036094685
 20
35.82464776410842
 30
0.0
 40
0.0249999999999986
100
AcDbArc
 50
179.9999999999918
 51
270.0
  0
LINE
  5
540F
330
17
100
AcDbEntity
  8
R-SWTS-DET1
100
AcDbLine
 10
22.71799036094686
 20
35.82464776410842
 30
0.0
 11
22.71799036094686
 21
35.84964776410842
 31
0.0
  0
LINE
  5
5410
330
17
100
AcDbEntity
  8
R-SWTS-DET1
100
AcDbLine
 10
22.71799036094686
 20
35.84964776410842
 30
0.0
 11
22.75599036094686
 21
35.84964776410842
 31
0.0
  0
LINE
  5
5411
330
17
100
AcDbEntity
  8
R-SWTS-DET1
100
AcDbLine
 10
22.75599036094686
 20
35.84964776410842
 30
0.0
 11
22.75599036094686
 21
35.92464776410842
 31
0.0
  0
ARC
  5
5412
330
17
100
AcDbEntity
  8
R-SWTS-DET1
100
AcDbCircle
 10
22.73099036094686
 20
35.92464776410842
 30
0.0
 40
0.0250000000000004
100
AcDbArc
 50
0.0
 51
90.0
  0
LINE
  5
5413
330
17
100
AcDbEntity
  8
R-SWTS-DET1
100
AcDbLine
 10
22.73099036094685
 20
35.94964776410843
 30
0.0
 11
22.57999036094685
 21
35.94964776410843
 31
0.0
  0
ARC
  5
5414
330
17
100
AcDbEntity
  8
R-SWTS-DET1
100
AcDbCircle
 10
22.57999036094687
 20
35.92464776410842
 30
0.0
 40
0.0250000000000017
100
AcDbArc
 50
90.0
 51
180.000000000005
  0
LINE
  5
5415
330
17
100
AcDbEntity
  8
R-SWTS-DET1
100
AcDbLine
 10
22.55499036094686
 20
35.92464776410842
 30
0.0
 11
22.55499036094686
 21
35.84964776410842
 31
0.0
  0
LINE
  5
5416
330
17
100
AcDbEntity
  8
R-SWTS-DET1
100
AcDbLine
 10
22.55499036094686
 20
35.84964776410842
 30
0.0
 11
22.59299036094686
 21
35.84964776410842
 31
0.0
  0
LINE
  5
5417
330
17
100
AcDbEntity
  8
R-SWTS-DET1
100
AcDbLine
 10
22.59299036094686
 20
35.84964776410842
 30
0.0
 11
22.59299036094686
 21
35.82464776410843
 31
0.0
  0
ARC
  5
5418
330
17
100
AcDbEntity
  8
R-SWTS-DET1
100
AcDbCircle
 10
22.56799036094685
 20
35.82464776410842
 30
0.0
 40
0.0249999999999986
100
AcDbArc
 50
270.0
 51
0.0000000000081549
  0
LINE
  5
5419
330
17
100
AcDbEntity
  8
R-SWTS-DET1
100
AcDbLine
 10
22.56799036094687
 20
35.79964776410842
 30
0.0
 11
22.49499036094686
 21
35.79964776410842
 31
0.0
  0
LINE
  5
541A
330
17
100
AcDbEntity
  8
R-SWTS-DET1
100
AcDbLine
 10
22.49499036094686
 20
35.79964776410842
 30
0.0
 11
22.49499036094686
 21
36.60664776410842
 31
0.0
  0
ARC
  5
541B
330
17
100
AcDbEntity
  8
R-SWTS-DET1
100
AcDbCircle
 10
22.55499036094686
 20
36.60664776410842
 30
0.0
 40
0.0600000000000001
100
AcDbArc
 50
90.0
 51
180.0000000000004
  0
LINE
  5
541C
330
17
100
AcDbEntity
  8
R-SWTS-DET1
100
AcDbLine
 10
22.55499036094686
 20
36.66664776410843
 30
0.0
 11
22.80199036094682
 21
36.66664776410843
 31
0.0
  0
LINE
  5
541D
330
17
100
AcDbEntity
  8
R-SWTS-DET1
100
AcDbLine
 10
22.80199036094682
 20
36.66664776410843
 30
0.0
 11
22.92699036094686
 21
36.79164776410848
 31
0.0
  0
LINE
  5
541E
330
17
100
AcDbEntity
  8
R-SWTS-DET1
100
AcDbLine
 10
22.92699036094686
 20
36.79164776410848
 30
0.0
 11
22.92699036094686
 21
36.90164776410848
 31
0.0
  0
ARC
  5
541F
330
17
100
AcDbEntity
  8
R-SWTS-DET1
100
AcDbCircle
 10
22.94699036094685
 20
36.90164776410848
 30
0.0
 40
0.0199999999999996
100
AcDbArc
 50
90.0
 51
180.0
  0
LINE
  5
5420
330
17
100
AcDbEntity
  8
R-SWTS-DET1
100
AcDbLine
 10
22.94699036094685
 20
36.92164776410847
 30
0.0
 11
22.96699036094687
 21
36.92164776410847
 31
0.0
  0
ARC
  5
5421
330
17
100
AcDbEntity
  8
R-SWTS-DET1
100
AcDbCircle
 10
22.96699036094687
 20
36.90164776410848
 30
0.0
 40
0.0199999999999996
100
AcDbArc
 50
0.0
 51
90.0
  0
LINE
  5
5422
330
17
100
AcDbEntity
  8
R-SWTS-DET1
100
AcDbLine
 10
22.98699036094686
 20
36.90164776410848
 30
0.0
 11
22.98699036094686
 21
36.79164776410848
 31
0.0
  0
ARC
  5
5423
330
17
100
AcDbEntity
  8
R-SWTS-DET1
100
AcDbCircle
 10
22.92699036094687
 20
36.79164776410848
 30
0.0
 40
0.0599999999999963
100
AcDbArc
 50
314.9999999999963
 51
359.9999999999972
  0
LINE
  5
5424
330
17
100
AcDbEntity
  8
R-SWTS-DET1
100
AcDbLine
 10
22.96941676781806
 20
36.74922135723728
 30
0.0
 11
22.844416767818
 21
36.62422135723723
 31
0.0
  0
ARC
  5
5425
330
17
100
AcDbEntity
  8
R-SWTS-DET1
100
AcDbCircle
 10
22.8019903609468
 20
36.66664776410843
 30
0.0
 40
0.0600000000000059
100
AcDbArc
 50
270.0
 51
314.9999999999999
  0
LINE
  5
5426
330
17
100
AcDbEntity
  8
R-SWTS-DET1
100
AcDbLine
 10
22.8019903609468
 20
36.60664776410842
 30
0.0
 11
22.55499036094686
 21
36.60664776410842
 31
0.0
  0
LINE
  5
5427
330
17
100
AcDbEntity
  8
R-SWTS-DET1
100
AcDbLine
 10
22.55499036094686
 20
36.60664776410842
 30
0.0
 11
22.55499036094686
 21
36.02164776410843
 31
0.0
  0
LINE
  5
5428
330
17
100
AcDbEntity
  8
R-SWTS-DET1
100
AcDbLine
 10
22.55499036094686
 20
36.02164776410843
 30
0.0
 11
22.75599036094686
 21
36.02164776410843
 31
0.0
  0
LINE
  5
5429
330
17
100
AcDbEntity
  8
R-SWTS-DET1
100
AcDbLine
 10
22.75599036094686
 20
36.02164776410843
 30
0.0
 11
22.75599036094686
 21
36.06164776410843
 31
0.0
  0
ARC
  5
542A
330
17
100
AcDbEntity
  8
R-SWTS-DET1
100
AcDbCircle
 10
22.81599036094686
 20
36.06164776410843
 30
0.0
 40
0.0600000000000001
100
AcDbArc
 50
90.0
 51
180.0000000000004
  0
LINE
  5
542B
330
17
100
AcDbEntity
  8
R-SWTS-DET1
100
AcDbLine
 10
22.81599036094686
 20
36.12164776410843
 30
0.0
 11
22.93499036094691
 21
36.12164776410843
 31
0.0
  0
LINE
  5
542C
330
17
100
AcDbEntity
  8
R-SWTS-DET1
100
AcDbLine
 10
22.93499036094691
 20
36.12164776410843
 30
0.0
 11
22.93499036094691
 21
36.22164776410844
 31
0.0
  0
ARC
  5
542D
330
17
100
AcDbEntity
  8
R-SWTS-DET1
100
AcDbCircle
 10
22.95499036094692
 20
36.22164776410844
 30
0.0
 40
0.0199999999999996
100
AcDbArc
 50
90.0
 51
180.0
  0
LINE
  5
542E
330
17
100
AcDbEntity
  8
R-SWTS-DET1
100
AcDbLine
 10
22.95499036094692
 20
36.24164776410844
 30
0.0
 11
22.97499036094692
 21
36.24164776410844
 31
0.0
  0
ARC
  5
542F
330
17
100
AcDbEntity
  8
R-SWTS-DET1
100
AcDbCircle
 10
22.97499036094692
 20
36.22164776410844
 30
0.0
 40
0.0199999999999996
100
AcDbArc
 50
0.0
 51
90.0
  0
LINE
  5
5431
330
17
100
AcDbEntity
  8
R-SWTS-DET1
100
AcDbLine
 10
28.24808575999141
 20
28.30378906452452
 30
0.0
 11
28.24808575999141
 21
30.27530419158242
 31
0.0
  0
LWPOLYLINE
  5
5456
330
17
100
AcDbEntity
  8
R-SWTS-DET1
100
AcDbPolyline
 90
       30
 70
     1
 43
0.0
 10
23.78199036094712
 20
35.68464776410849
 10
23.77199036094713
 20
35.6746477641085
 10
23.04610956182397
 20
35.6746477641085
 10
22.93699036094712
 20
35.73764776410849
 10
22.93699036094712
 20
35.9946477641085
 42
-0.4142135623731125
 10
22.96699036094712
 20
36.0246477641085
 10
22.99999036094712
 20
36.0246477641085
 10
22.99999036094712
 20
35.89964776410849
 42
0.4142135623731002
 10
23.09999036094712
 20
35.79964776410849
 10
23.37499036094712
 20
35.79964776410849
 10
23.37499036094712
 20
35.9246477641085
 10
23.47499036094712
 20
35.9246477641085
 10
23.47499036094712
 20
35.79964776410849
 10
24.27699036094713
 20
35.79964776410849
 10
24.27699036094713
 20
35.92464776410849
 10
24.37699036094712
 20
35.92464776410849
 10
24.37699036094712
 20
35.79964776410849
 10
25.04999036094712
 20
35.79964776410849
 10
25.04999036094712
 20
35.92464776410849
 10
25.17499036094712
 20
35.92464776410849
 10
25.17499036094712
 20
34.8616477641085
 10
25.04999036094712
 20
34.8616477641085
 10
25.04999036094712
 20
35.6746477641085
 10
24.49699036094712
 20
35.6746477641085
 10
24.48699036094712
 20
35.68464776410849
 10
24.47699036094713
 20
35.6746477641085
 10
24.18499036094713
 20
35.6746477641085
 10
24.17499036094712
 20
35.68464776410849
 10
24.16499036094712
 20
35.6746477641085
 10
23.79199036094712
 20
35.6746477641085
  0
LINE
  5
54CC
330
17
100
AcDbEntity
  8
R-SWTS-DET1
100
AcDbLine
 10
23.78083232615444
 20
26.67569062878768
 30
0.0
 11
23.77083232615445
 21
26.68569062878769
 31
0.0
  0
LINE
  5
54CD
330
17
100
AcDbEntity
  8
R-SWTS-DET1
100
AcDbLine
 10
23.77083232615445
 20
26.68569062878769
 30
0.0
 11
23.04495152703129
 21
26.68569062878769
 31
0.0
  0
LINE
  5
54CE
330
17
100
AcDbEntity
  8
R-SWTS-DET1
100
AcDbLine
 10
23.04495152703129
 20
26.68569062878769
 30
0.0
 11
22.93583232615444
 21
26.62269062878768
 31
0.0
  0
LINE
  5
54CF
330
17
100
AcDbEntity
  8
R-SWTS-DET1
100
AcDbLine
 10
22.93583232615444
 20
26.62269062878768
 30
0.0
 11
22.93583232615444
 21
26.36569062878769
 31
0.0
  0
ARC
  5
54D0
330
17
100
AcDbEntity
  8
R-SWTS-DET1
100
AcDbCircle
 10
22.96583232615444
 20
26.36569062878769
 30
0.0
 40
0.0300000000000011
100
AcDbArc
 50
180.0
 51
270.0
  0
LINE
  5
54D1
330
17
100
AcDbEntity
  8
R-SWTS-DET1
100
AcDbLine
 10
22.96583232615444
 20
26.33569062878768
 30
0.0
 11
22.99883232615444
 21
26.33569062878768
 31
0.0
  0
LINE
  5
54D2
330
17
100
AcDbEntity
  8
R-SWTS-DET1
100
AcDbLine
 10
22.99883232615444
 20
26.33569062878768
 30
0.0
 11
22.99883232615444
 21
26.46069062878768
 31
0.0
  0
ARC
  5
54D3
330
17
100
AcDbEntity
  8
R-SWTS-DET1
100
AcDbCircle
 10
23.09883232615444
 20
26.46069062878768
 30
0.0
 40
0.0999999999999997
100
AcDbArc
 50
90.0
 51
180.000000000001
  0
LINE
  5
54D4
330
17
100
AcDbEntity
  8
R-SWTS-DET1
100
AcDbLine
 10
23.09883232615444
 20
26.56069062878768
 30
0.0
 11
23.37383232615444
 21
26.56069062878769
 31
0.0
  0
LINE
  5
54D5
330
17
100
AcDbEntity
  8
R-SWTS-DET1
100
AcDbLine
 10
23.37383232615444
 20
26.56069062878769
 30
0.0
 11
23.37383232615444
 21
26.43569062878768
 31
0.0
  0
LINE
  5
54D6
330
17
100
AcDbEntity
  8
R-SWTS-DET1
100
AcDbLine
 10
23.37383232615444
 20
26.43569062878768
 30
0.0
 11
23.47383232615445
 21
26.43569062878768
 31
0.0
  0
LINE
  5
54D7
330
17
100
AcDbEntity
  8
R-SWTS-DET1
100
AcDbLine
 10
23.47383232615445
 20
26.43569062878768
 30
0.0
 11
23.47383232615445
 21
26.56069062878768
 31
0.0
  0
LINE
  5
54D8
330
17
100
AcDbEntity
  8
R-SWTS-DET1
100
AcDbLine
 10
23.47383232615445
 20
26.56069062878768
 30
0.0
 11
24.27583232615444
 21
26.56069062878768
 31
0.0
  0
LINE
  5
54D9
330
17
100
AcDbEntity
  8
R-SWTS-DET1
100
AcDbLine
 10
24.27583232615444
 20
26.56069062878768
 30
0.0
 11
24.27583232615444
 21
26.43569062878768
 31
0.0
  0
LINE
  5
54DA
330
17
100
AcDbEntity
  8
R-SWTS-DET1
100
AcDbLine
 10
24.27583232615444
 20
26.43569062878768
 30
0.0
 11
24.37583232615444
 21
26.43569062878768
 31
0.0
  0
LINE
  5
54DB
330
17
100
AcDbEntity
  8
R-SWTS-DET1
100
AcDbLine
 10
24.37583232615444
 20
26.43569062878768
 30
0.0
 11
24.37583232615444
 21
26.56069062878768
 31
0.0
  0
LINE
  5
54DC
330
17
100
AcDbEntity
  8
R-SWTS-DET1
100
AcDbLine
 10
24.37583232615444
 20
26.56069062878768
 30
0.0
 11
25.04883232615444
 21
26.56069062878768
 31
0.0
  0
LINE
  5
54DD
330
17
100
AcDbEntity
  8
R-SWTS-DET1
100
AcDbLine
 10
25.04883232615444
 20
26.56069062878768
 30
0.0
 11
25.04883232615444
 21
26.43569062878768
 31
0.0
  0
LINE
  5
54DE
330
17
100
AcDbEntity
  8
R-SWTS-DET1
100
AcDbLine
 10
25.04883232615444
 20
26.43569062878768
 30
0.0
 11
25.17383232615444
 21
26.43569062878768
 31
0.0
  0
LINE
  5
54DF
330
17
100
AcDbEntity
  8
R-SWTS-DET1
100
AcDbLine
 10
25.17383232615444
 20
26.43569062878768
 30
0.0
 11
25.17383232615444
 21
27.49869062878768
 31
0.0
  0
LINE
  5
54E0
330
17
100
AcDbEntity
  8
R-SWTS-DET1
100
AcDbLine
 10
25.17383232615444
 20
27.49869062878768
 30
0.0
 11
25.04883232615444
 21
27.49869062878768
 31
0.0
  0
LINE
  5
54E1
330
17
100
AcDbEntity
  8
R-SWTS-DET1
100
AcDbLine
 10
25.04883232615444
 20
27.49869062878768
 30
0.0
 11
25.04883232615444
 21
26.68569062878769
 31
0.0
  0
LINE
  5
54E2
330
17
100
AcDbEntity
  8
R-SWTS-DET1
100
AcDbLine
 10
25.04883232615444
 20
26.68569062878769
 30
0.0
 11
24.49583232615444
 21
26.68569062878769
 31
0.0
  0
LINE
  5
54E3
330
17
100
AcDbEntity
  8
R-SWTS-DET1
100
AcDbLine
 10
24.49583232615444
 20
26.68569062878769
 30
0.0
 11
24.48583232615444
 21
26.67569062878768
 31
0.0
  0
LINE
  5
54E4
330
17
100
AcDbEntity
  8
R-SWTS-DET1
100
AcDbLine
 10
24.48583232615444
 20
26.67569062878768
 30
0.0
 11
24.47583232615443
 21
26.68569062878769
 31
0.0
  0
LINE
  5
54E5
330
17
100
AcDbEntity
  8
R-SWTS-DET1
100
AcDbLine
 10
24.47583232615443
 20
26.68569062878769
 30
0.0
 11
24.18383232615443
 21
26.68569062878769
 31
0.0
  0
LINE
  5
54E6
330
17
100
AcDbEntity
  8
R-SWTS-DET1
100
AcDbLine
 10
24.18383232615443
 20
26.68569062878769
 30
0.0
 11
24.17383232615444
 21
26.67569062878768
 31
0.0
  0
LINE
  5
54E7
330
17
100
AcDbEntity
  8
R-SWTS-DET1
100
AcDbLine
 10
24.17383232615444
 20
26.67569062878768
 30
0.0
 11
24.16383232615443
 21
26.68569062878769
 31
0.0
  0
LINE
  5
54E8
330
17
100
AcDbEntity
  8
R-SWTS-DET1
100
AcDbLine
 10
24.16383232615443
 20
26.68569062878769
 30
0.0
 11
23.79083232615444
 21
26.68569062878769
 31
0.0
  0
LINE
  5
54E9
330
17
100
AcDbEntity
  8
R-SWTS-DET1
100
AcDbLine
 10
23.79083232615444
 20
26.68569062878769
 30
0.0
 11
23.78083232615444
 21
26.67569062878768
 31
0.0
  0
LINE
  5
5517
330
17
100
AcDbEntity
  8
R-SWTS-DET1
100
AcDbLine
 10
22.99383232615423
 20
26.13869062878773
 30
0.0
 11
22.99383232615423
 21
26.23869062878775
 31
0.0
  0
LINE
  5
5518
330
17
100
AcDbEntity
  8
R-SWTS-DET1
100
AcDbLine
 10
22.99383232615423
 20
26.23869062878775
 30
0.0
 11
23.09383232615423
 21
26.23869062878775
 31
0.0
  0
ARC
  5
5519
330
17
100
AcDbEntity
  8
R-SWTS-DET1
100
AcDbCircle
 10
23.09383232615423
 20
26.26869062878775
 30
0.0
 40
0.0300000000000011
100
AcDbArc
 50
270.0
 51
49.21933803625282
  0
LINE
  5
551A
330
17
100
AcDbEntity
  8
R-SWTS-DET1
100
AcDbLine
 10
23.11342727830095
 20
26.29140709529044
 30
0.0
 11
23.06862980222759
 21
26.33004886203909
 31
0.0
  0
ARC
  5
551B
330
17
100
AcDbEntity
  8
R-SWTS-DET1
100
AcDbCircle
 10
23.05883232615423
 20
26.31869062878774
 30
0.0
 40
0.0150000000000042
100
AcDbArc
 50
49.2193380362617
 51
179.9999999999728
  0
LINE
  5
551C
330
17
100
AcDbEntity
  8
R-SWTS-DET1
100
AcDbLine
 10
23.04383232615423
 20
26.31869062878774
 30
0.0
 11
23.04383232615423
 21
26.29869062878774
 31
0.0
  0
LINE
  5
551D
330
17
100
AcDbEntity
  8
R-SWTS-DET1
100
AcDbLine
 10
23.04383232615423
 20
26.29869062878774
 30
0.0
 11
22.81483232615418
 21
26.29869062878774
 31
0.0
  0
LINE
  5
551E
330
17
100
AcDbEntity
  8
R-SWTS-DET1
100
AcDbLine
 10
22.81483232615418
 20
26.29869062878774
 30
0.0
 11
22.81483232615418
 21
26.56069062878775
 31
0.0
  0
LINE
  5
551F
330
17
100
AcDbEntity
  8
R-SWTS-DET1
100
AcDbLine
 10
22.81483232615418
 20
26.56069062878775
 30
0.0
 11
22.74183232615417
 21
26.56069062878775
 31
0.0
  0
ARC
  5
5520
330
17
100
AcDbEntity
  8
R-SWTS-DET1
100
AcDbCircle
 10
22.74183232615417
 20
26.53569062878776
 30
0.0
 40
0.024999999999995
100
AcDbArc
 50
90.0
 51
180.0000000000162
  0
LINE
  5
5521
330
17
100
AcDbEntity
  8
R-SWTS-DET1
100
AcDbLine
 10
22.71683232615417
 20
26.53569062878775
 30
0.0
 11
22.71683232615417
 21
26.51069062878775
 31
0.0
  0
LINE
  5
5522
330
17
100
AcDbEntity
  8
R-SWTS-DET1
100
AcDbLine
 10
22.71683232615417
 20
26.51069062878775
 30
0.0
 11
22.75483232615417
 21
26.51069062878775
 31
0.0
  0
LINE
  5
5523
330
17
100
AcDbEntity
  8
R-SWTS-DET1
100
AcDbLine
 10
22.75483232615417
 20
26.51069062878775
 30
0.0
 11
22.75483232615417
 21
26.43569062878775
 31
0.0
  0
ARC
  5
5524
330
17
100
AcDbEntity
  8
R-SWTS-DET1
100
AcDbCircle
 10
22.72983232615417
 20
26.43569062878775
 30
0.0
 40
0.0250000000000057
100
AcDbArc
 50
270.0
 51
359.9999999999919
  0
LINE
  5
5525
330
17
100
AcDbEntity
  8
R-SWTS-DET1
100
AcDbLine
 10
22.72983232615417
 20
26.41069062878775
 30
0.0
 11
22.57883232615417
 21
26.41069062878775
 31
0.0
  0
ARC
  5
5526
330
17
100
AcDbEntity
  8
R-SWTS-DET1
100
AcDbCircle
 10
22.57883232615419
 20
26.43569062878775
 30
0.0
 40
0.0249999999999986
100
AcDbArc
 50
179.9999999999837
 51
269.9999999999674
  0
LINE
  5
5527
330
17
100
AcDbEntity
  8
R-SWTS-DET1
100
AcDbLine
 10
22.55383232615418
 20
26.43569062878775
 30
0.0
 11
22.55383232615418
 21
26.51069062878775
 31
0.0
  0
LINE
  5
5528
330
17
100
AcDbEntity
  8
R-SWTS-DET1
100
AcDbLine
 10
22.55383232615418
 20
26.51069062878775
 30
0.0
 11
22.59183232615418
 21
26.51069062878775
 31
0.0
  0
LINE
  5
5529
330
17
100
AcDbEntity
  8
R-SWTS-DET1
100
AcDbLine
 10
22.59183232615418
 20
26.51069062878775
 30
0.0
 11
22.59183232615418
 21
26.53569062878775
 31
0.0
  0
ARC
  5
552A
330
17
100
AcDbEntity
  8
R-SWTS-DET1
100
AcDbCircle
 10
22.56683232615419
 20
26.53569062878776
 30
0.0
 40
0.0249999999999915
100
AcDbArc
 50
359.9999999999837
 51
90.0
  0
LINE
  5
552B
330
17
100
AcDbEntity
  8
R-SWTS-DET1
100
AcDbLine
 10
22.56683232615419
 20
26.56069062878775
 30
0.0
 11
22.49383232615418
 21
26.56069062878775
 31
0.0
  0
LINE
  5
552C
330
17
100
AcDbEntity
  8
R-SWTS-DET1
100
AcDbLine
 10
22.49383232615418
 20
26.56069062878775
 30
0.0
 11
22.49383232615418
 21
25.75369062878775
 31
0.0
  0
ARC
  5
552D
330
17
100
AcDbEntity
  8
R-SWTS-DET1
100
AcDbCircle
 10
22.55383232615418
 20
25.75369062878775
 30
0.0
 40
0.0600000000000023
100
AcDbArc
 50
180.0
 51
270.0
  0
LINE
  5
552E
330
17
100
AcDbEntity
  8
R-SWTS-DET1
100
AcDbLine
 10
22.55383232615418
 20
25.69369062878775
 30
0.0
 11
22.80083232615414
 21
25.69369062878775
 31
0.0
  0
LINE
  5
552F
330
17
100
AcDbEntity
  8
R-SWTS-DET1
100
AcDbLine
 10
22.80083232615414
 20
25.69369062878775
 30
0.0
 11
22.92583232615418
 21
25.5686906287877
 31
0.0
  0
LINE
  5
5530
330
17
100
AcDbEntity
  8
R-SWTS-DET1
100
AcDbLine
 10
22.92583232615418
 20
25.5686906287877
 30
0.0
 11
22.92583232615418
 21
25.4586906287877
 31
0.0
  0
ARC
  5
5531
330
17
100
AcDbEntity
  8
R-SWTS-DET1
100
AcDbCircle
 10
22.94583232615417
 20
25.4586906287877
 30
0.0
 40
0.019999999999996
100
AcDbArc
 50
180.0
 51
270.0
  0
LINE
  5
5532
330
17
100
AcDbEntity
  8
R-SWTS-DET1
100
AcDbLine
 10
22.94583232615417
 20
25.4386906287877
 30
0.0
 11
22.96583232615418
 21
25.4386906287877
 31
0.0
  0
ARC
  5
5533
330
17
100
AcDbEntity
  8
R-SWTS-DET1
100
AcDbCircle
 10
22.96583232615418
 20
25.4586906287877
 30
0.0
 40
0.0199999999999996
100
AcDbArc
 50
270.0
 51
0.0
  0
LINE
  5
5534
330
17
100
AcDbEntity
  8
R-SWTS-DET1
100
AcDbLine
 10
22.98583232615418
 20
25.4586906287877
 30
0.0
 11
22.98583232615418
 21
25.5686906287877
 31
0.0
  0
ARC
  5
5535
330
17
100
AcDbEntity
  8
R-SWTS-DET1
100
AcDbCircle
 10
22.92583232615419
 20
25.56869062878771
 30
0.0
 40
0.0599999999999881
100
AcDbArc
 50
359.9999999999933
 51
44.9999999999976
  0
LINE
  5
5536
330
17
100
AcDbEntity
  8
R-SWTS-DET1
100
AcDbLine
 10
22.96825873302538
 20
25.61111703565889
 30
0.0
 11
22.84325873302532
 21
25.73611703565894
 31
0.0
  0
ARC
  5
5537
330
17
100
AcDbEntity
  8
R-SWTS-DET1
100
AcDbCircle
 10
22.80083232615412
 20
25.69369062878774
 30
0.0
 40
0.0600000000000109
100
AcDbArc
 50
45.0
 51
90.0
  0
LINE
  5
5538
330
17
100
AcDbEntity
  8
R-SWTS-DET1
100
AcDbLine
 10
22.80083232615412
 20
25.75369062878775
 30
0.0
 11
22.55383232615418
 21
25.75369062878775
 31
0.0
  0
LINE
  5
5539
330
17
100
AcDbEntity
  8
R-SWTS-DET1
100
AcDbLine
 10
22.55383232615418
 20
25.75369062878775
 30
0.0
 11
22.55383232615418
 21
26.33869062878775
 31
0.0
  0
LINE
  5
553A
330
17
100
AcDbEntity
  8
R-SWTS-DET1
100
AcDbLine
 10
22.55383232615418
 20
26.33869062878775
 30
0.0
 11
22.75483232615417
 21
26.33869062878775
 31
0.0
  0
LINE
  5
553B
330
17
100
AcDbEntity
  8
R-SWTS-DET1
100
AcDbLine
 10
22.75483232615417
 20
26.33869062878775
 30
0.0
 11
22.75483232615417
 21
26.29869062878774
 31
0.0
  0
ARC
  5
553C
330
17
100
AcDbEntity
  8
R-SWTS-DET1
100
AcDbCircle
 10
22.81483232615418
 20
26.29869062878775
 30
0.0
 40
0.0600000000000023
100
AcDbArc
 50
180.0000000000034
 51
270.0
  0
LINE
  5
553D
330
17
100
AcDbEntity
  8
R-SWTS-DET1
100
AcDbLine
 10
22.81483232615418
 20
26.23869062878775
 30
0.0
 11
22.93383232615423
 21
26.23869062878775
 31
0.0
  0
LINE
  5
553E
330
17
100
AcDbEntity
  8
R-SWTS-DET1
100
AcDbLine
 10
22.93383232615423
 20
26.23869062878775
 30
0.0
 11
22.93383232615423
 21
26.13869062878773
 31
0.0
  0
ARC
  5
553F
330
17
100
AcDbEntity
  8
R-SWTS-DET1
100
AcDbCircle
 10
22.95383232615424
 20
26.13869062878774
 30
0.0
 40
0.0200000000000102
100
AcDbArc
 50
180.0000000000102
 51
270.0
  0
LINE
  5
5540
330
17
100
AcDbEntity
  8
R-SWTS-DET1
100
AcDbLine
 10
22.95383232615424
 20
26.11869062878773
 30
0.0
 11
22.97383232615424
 21
26.11869062878773
 31
0.0
  0
ARC
  5
5541
330
17
100
AcDbEntity
  8
R-SWTS-DET1
100
AcDbCircle
 10
22.97383232615424
 20
26.13869062878773
 30
0.0
 40
0.0199999999999996
100
AcDbArc
 50
270.0
 51
0.0000000000101778
  0
LWPOLYLINE
  5
5611
330
17
100
AcDbEntity
  8
R-SWTS-DET1
100
AcDbPolyline
 90
       28
 70
     1
 43
0.0
 10
32.40055272540151
 20
11.30120270417949
 10
32.40055272540151
 20
11.24120270417964
 10
32.1985527254015
 20
11.24120270417964
 10
32.1985527254015
 20
11.30120270417954
 42
0.4142135623730474
 10
32.13855272540151
 20
11.36120270417954
 10
31.38555272540147
 20
11.36120270417966
 42
0.4142135623732339
 10
31.35555272540147
 20
11.33120270417965
 10
31.3555527254015
 20
11.21120270417961
 10
31.14955272540151
 20
11.21120270417963
 10
31.14955272540151
 20
16.26120270417963
 10
31.30955272540149
 20
16.26120270417963
 42
-0.4142135623730951
 10
31.36955272540149
 20
16.20120270417963
 10
31.36955272540149
 20
16.14120270417964
 10
31.60455272540149
 20
16.14120270417964
 10
31.60455272540149
 20
16.20120270417965
 42
-0.4142135623730974
 10
31.6645527254015
 20
16.26120270417965
 10
32.9345527254015
 20
16.26120270417964
 42
-0.4142135623731013
 10
32.9945527254015
 20
16.20120270417964
 10
32.9945527254015
 20
16.14120270417964
 10
33.22955272540151
 20
16.14120270417964
 10
33.22955272540151
 20
16.20120270417964
 42
-0.4142135623730951
 10
33.28955272540151
 20
16.26120270417963
 10
33.44955272540151
 20
16.26120270417963
 10
33.44955272540151
 20
11.21120270417963
 10
33.2435527254015
 20
11.21120270417961
 10
33.24355272540155
 20
11.33120270417936
 42
0.4142135623731471
 10
33.21355272540156
 20
11.36120270417937
 10
32.46055272540151
 20
11.36120270417949
 42
0.4142135623731341
  0
LWPOLYLINE
  5
5612
330
17
100
AcDbEntity
  8
R-SWTS-DET1
100
AcDbPolyline
 90
       43
 70
     1
 43
0.0
 10
33.11698129683006
 20
11.13684436278905
 42
0.6693764950687389
 10
33.1275527254015
 20
11.11120270417961
 10
33.5495527254015
 20
11.11120270417963
 10
33.5495527254015
 20
16.36120270417963
 10
31.0495527254015
 20
16.36120270417966
 10
31.0495527254015
 20
11.11120270417963
 10
31.47155272540151
 20
11.11120270417961
 42
0.6693764950687386
 10
31.48212415397295
 20
11.13684436278905
 42
-0.1997729274168749
 10
31.4555527254015
 20
11.2006943144455
 10
31.4555527254015
 20
11.21120270417963
 42
-0.4142135623730951
 10
31.5055527254015
 20
11.26120270417963
 10
31.5935527254015
 20
11.26120270417963
 42
-0.4142135623730743
 10
31.64355272540151
 20
11.21120270417963
 10
31.64355272540151
 20
11.2006943144455
 42
-0.1997729274170188
 10
31.61698129682999
 20
11.13684436278905
 42
0.669376495068904
 10
31.62755272540142
 20
11.11120270417964
 10
31.7545527254015
 20
11.11120270417964
 42
0.4142135623730951
 10
31.7845527254015
 20
11.14120270417964
 10
31.7845527254015
 20
11.23120270417959
 42
-0.4142135623731471
 10
31.81455272540151
 20
11.26120270417959
 10
32.0685527254015
 20
11.26120270417955
 42
-0.4142135623730516
 10
32.09855272540149
 20
11.23120270417955
 10
32.09855272540149
 20
11.14120270417964
 42
0.4142135623731038
 10
32.12855272540149
 20
11.11120270417964
 10
32.26955272540151
 20
11.11120270417965
 10
32.29955272540151
 20
11.14120270417965
 10
32.32955272540151
 20
11.11120270417964
 10
32.4705527254015
 20
11.11120270417964
 42
0.4142135623730951
 10
32.50055272540151
 20
11.14120270417964
 10
32.50055272540151
 20
11.23120270417948
 42
-0.4142135623731471
 10
32.53055272540151
 20
11.26120270417948
 10
32.78455272540151
 20
11.26120270417944
 42
-0.4142135623730516
 10
32.8145527254015
 20
11.23120270417944
 10
32.8145527254015
 20
11.14120270417964
 42
0.4142135623730863
 10
32.8445527254015
 20
11.11120270417964
 10
32.97155272540159
 20
11.11120270417964
 42
0.6693764950688821
 10
32.98212415397296
 20
11.136844362789
 42
-0.1997729274170196
 10
32.95555272540151
 20
11.2006943144455
 10
32.95555272540151
 20
11.21120270417963
 42
-0.4142135623730743
 10
33.0055527254015
 20
11.26120270417963
 10
33.0935527254015
 20
11.26120270417963
 42
-0.4142135623730951
 10
33.14355272540151
 20
11.21120270417963
 10
33.14355272540151
 20
11.2006943144455
 42
-0.1997729274168747
  0
TEXT
  5
5635
330
17
100
AcDbEntity
  8
PART_NUMBERS
  6
Continuous
100
AcDbText
 10
29.99162134472114
 20
16.71249484919671
 30
0.0
 40
0.25
  1
162027 SSG MULLION
100
AcDbText
  0
TEXT
  5
56DC
330
17
100
AcDbEntity
  8
R-ANNO-DIMS
  6
ByBlock
100
AcDbText
 10
34.19049747301305
 20
7.986202704179621
 30
0.0
 40
0.25
  1
DLO
 72
     1
 11
34.5495527254005
 21
8.111202704179621
 31
0.0
100
AcDbText
 73
     2
  0
LINE
  5
56DD
330
17
100
AcDbEntity
  8
R-ANNO-DIMS
  6
ByBlock
100
AcDbLine
 10
33.54955272540085
 20
10.98620270417958
 30
0.0
 11
33.54955272540085
 21
7.736202704179621
 31
0.0
  0
LINE
  5
56DE
330
17
100
AcDbEntity
  8
R-ANNO-DIMS
  6
ByBlock
100
AcDbLine
 10
33.54955272540085
 20
10.98620270417958
 30
0.0
 11
33.54955272540085
 21
7.736202704179621
 31
0.0
  0
TEXT
  5
56DF
330
17
100
AcDbEntity
  8
R-ANNO-DIMS
  6
ByBlock
100
AcDbText
 10
27.84739038147979
 20
7.986202704179621
 30
0.0
 40
0.25
  1
VENT OPENING
 72
     1
 11
29.16696746197093
 21
8.111202704179621
 31
0.0
100
AcDbText
 73
     2
  0
LINE
  5
56E0
330
17
100
AcDbEntity
  8
R-ANNO-DIMS
  6
ByBlock
100
AcDbLine
 10
31.04955272540085
 20
10.98620270417958
 30
0.0
 11
31.04955272540085
 21
7.736202704179621
 31
0.0
  0
LINE
  5
56E1
330
17
100
AcDbEntity
  8
R-ANNO-DIMS
  6
ByBlock
100
AcDbLine
 10
31.04955272540085
 20
10.98620270417958
 30
0.0
 11
31.04955272540085
 21
7.736202704179621
 31
0.0
  0
TEXT
  5
56E2
330
17
100
AcDbEntity
  8
R-ANNO-DIMS
  6
ByBlock
100
AcDbText
 10
31.84917755486879
 20
7.986202704179621
 30
0.0
 40
0.25
  1
2 1/2"
 72
     1
 11
32.29955272540085
 21
8.111202704179621
 31
0.0
100
AcDbText
 73
     2
  0
LINE
  5
56E3
330
17
100
AcDbEntity
  8
R-ANNO-DIMS
  6
ByBlock
100
AcDbLine
 10
33.36205272540084
 20
7.861202704179621
 30
0.0
 11
31.23705272540084
 21
7.861202704179621
 31
0.0
  0
LINE
  5
56E4
330
17
100
AcDbEntity
  8
R-ANNO-DIMS
  6
ByBlock
100
AcDbLine
 10
30.86205272540084
 20
7.861202704179621
 30
0.0
 11
27.38146806160074
 21
7.861202704179621
 31
0.0
  0
SOLID
  5
56E5
330
17
100
AcDbEntity
  8
R-ANNO-DIMS
  6
ByBlock
100
AcDbTrace
 10
27.45457629902289
 20
7.892452704179621
 30
0.0
 11
27.45457629902289
 21
7.829952704179621
 31
0.0
 12
27.26707629902289
 22
7.861202704179621
 32
0.0
 13
27.26707629902289
 23
7.861202704179621
 33
0.0
  0
SOLID
  5
56E6
330
17
100
AcDbEntity
  8
R-ANNO-DIMS
  6
ByBlock
100
AcDbTrace
 10
31.23705272540084
 20
7.892452704179621
 30
0.0
 11
31.23705272540084
 21
7.829952704179621
 31
0.0
 12
31.04955272540085
 22
7.861202704179621
 32
0.0
 13
31.04955272540085
 23
7.861202704179621
 33
0.0
  0
SOLID
  5
56E7
330
17
100
AcDbEntity
  8
R-ANNO-DIMS
  6
ByBlock
100
AcDbTrace
 10
30.86205272540084
 20
7.892452704179621
 30
0.0
 11
30.86205272540084
 21
7.829952704179621
 31
0.0
 12
31.04955272540085
 22
7.861202704179621
 32
0.0
 13
31.04955272540085
 23
7.861202704179621
 33
0.0
  0
LINE
  5
56E8
330
17
100
AcDbEntity
  8
R-ANNO-DIMS
  6
ByBlock
100
AcDbLine
 10
33.73705272540084
 20
7.861202704179621
 30
0.0
 11
35.36205272540018
 21
7.861202704179621
 31
0.0
  0
SOLID
  5
56E9
330
17
100
AcDbEntity
  8
R-ANNO-DIMS
  6
ByBlock
100
AcDbTrace
 10
33.36205272540084
 20
7.892452704179621
 30
0.0
 11
33.36205272540084
 21
7.829952704179621
 31
0.0
 12
33.54955272540085
 22
7.861202704179621
 32
0.0
 13
33.54955272540085
 23
7.861202704179621
 33
0.0
  0
SOLID
  5
56EA
330
17
100
AcDbEntity
  8
R-ANNO-DIMS
  6
ByBlock
100
AcDbTrace
 10
33.73705272540084
 20
7.892452704179621
 30
0.0
 11
33.73705272540084
 21
7.829952704179621
 31
0.0
 12
33.54955272540085
 22
7.861202704179621
 32
0.0
 13
33.54955272540085
 23
7.861202704179621
 33
0.0
  0
SOLID
  5
56EB
330
17
100
AcDbEntity
  8
R-ANNO-DIMS
  6
ByBlock
100
AcDbTrace
 10
35.36205272540018
 20
7.892452704179621
 30
0.0
 11
35.36205272540018
 21
7.829952704179621
 31
0.0
 12
35.54955272540018
 22
7.861202704179621
 32
0.0
 13
35.54955272540018
 23
7.861202704179621
 33
0.0
  0
TEXT
  5
56EC
330
17
100
AcDbEntity
  8
0
 62
     2
100
AcDbText
 10
27.59692722132448
 20
13.57950052352595
 30
0.0
 40
0.187
  1
PROJECT-OUT JAMB
100
AcDbText
  0
LINE
  5
56EE
330
17
100
AcDbEntity
  8
R-SWTS-DET2
100
AcDbLine
 10
35.5495527254015
 20
10.07144778215577
 30
0.0
 11
27.21720224113521
 21
10.07144778215577
 31
0.0
  0
LINE
  5
56EF
330
17
100
AcDbEntity
  8
R-SWTS-DET1
100
AcDbLine
 10
35.5495527254015
 20
9.611202704179621
 30
0.0
 11
27.21720224113523
 21
9.611202704179621
 31
0.0
  0
LWPOLYLINE
  5
56F2
330
17
100
AcDbEntity
  8
R-SWTS-DET2
100
AcDbPolyline
 90
        8
 70
     1
 43
0.0
 10
31.57255272540145
 20
11.04120270417964
 42
0.4142135623730944
 10
31.54255272540145
 20
11.01120270417964
 10
31.54255272540145
 20
10.95533935575987
 42
0.3966354997270777
 10
31.57074224658594
 20
10.92539403615131
 10
32.23274224658599
 20
10.88536985235446
 42
0.4320128626193652
 10
32.2645527254015
 20
10.91531517196301
 10
32.2645527254015
 20
11.01120270417964
 42
0.4142135623730956
 10
32.2345527254015
 20
11.04120270417964
  0
LWPOLYLINE
  5
56F3
330
17
100
AcDbEntity
  8
R-SWTS-DET2
100
AcDbPolyline
 90
       41
 70
     1
 43
0.0
 10
31.97155272540151
 20
11.20624704771604
 10
32.01518807781517
 20
11.19455499027535
 42
0.9999999999999909
 10
32.02191737298785
 20
11.21966906175887
 10
31.94155272540151
 20
11.24120270417964
 10
31.86118807781517
 20
11.21966906175887
 42
0.9999999999999909
 10
31.86791737298783
 20
11.19455499027535
 10
31.91155272540151
 20
11.20624704771604
 10
31.8915527254015
 20
11.11120270417963
 10
31.59955272540145
 20
11.11120270417963
 10
31.57955272540146
 20
11.20624704771604
 10
31.62318807781513
 20
11.19455499027535
 42
0.9999999999999909
 10
31.62991737298779
 20
11.21966906175887
 10
31.54955272540146
 20
11.24120270417964
 10
31.46918807781512
 20
11.21966906175887
 42
0.9999999999999909
 10
31.4759173729878
 20
11.19455499027535
 10
31.51955272540146
 20
11.20624704771604
 10
31.49955272540146
 20
11.11120270417963
 10
31.47255272540146
 20
11.11120270417963
 10
31.47255272540146
 20
10.86120270417965
 10
32.2995527254015
 20
10.81120270417965
 10
33.12655272540154
 20
10.86120270417965
 10
33.12655272540155
 20
11.11120270417963
 10
33.09955272540154
 20
11.11120270417963
 10
33.07955272540154
 20
11.20624704771604
 10
33.12318807781521
 20
11.19455499027535
 42
0.9999999999999909
 10
33.12991737298788
 20
11.21966906175887
 10
33.04955272540154
 20
11.24120270417964
 10
32.96918807781521
 20
11.21966906175887
 42
0.9999999999999909
 10
32.97591737298787
 20
11.19455499027535
 10
33.01955272540154
 20
11.20624704771604
 10
32.99955272540155
 20
11.11120270417963
 10
32.7075527254015
 20
11.11120270417963
 10
32.68755272540149
 20
11.20624704771604
 10
32.73118807781516
 20
11.19455499027535
 42
0.9999999999999909
 10
32.73791737298783
 20
11.21966906175887
 10
32.6575527254015
 20
11.24120270417964
 10
32.57718807781517
 20
11.21966906175887
 42
0.9999999999999909
 10
32.58391737298783
 20
11.19455499027535
 10
32.6275527254015
 20
11.20624704771604
 10
32.60755272540149
 20
11.11120270417963
 10
31.99155272540151
 20
11.11120270417963
  0
LWPOLYLINE
  5
56F4
330
17
100
AcDbEntity
  8
R-SWTS-DET3
100
AcDbPolyline
 90
        4
 70
     0
 43
0.0
 10
27.21720224113521
 20
10.86120270417963
 10
32.0495527254015
 20
10.86120270417962
 10
32.0495527254015
 20
10.61120270417962
 10
27.21720224113521
 20
10.61120270417962
  0
LINE
  5
56F5
330
17
100
AcDbEntity
  8
R-SWTS-DET1
100
AcDbLine
 10
27.21720224113521
 20
9.466449811938396
 30
0.0
 11
27.21720224113521
 21
12.130321957742
 31
0.0
  0
LWPOLYLINE
  5
56F6
330
17
100
AcDbEntity
  8
R-SWTS-DET1
100
AcDbPolyline
 90
       24
 70
     1
 43
0.0
 10
30.1115527254015
 20
12.99120270417972
 10
30.11155272540151
 20
11.24120270417972
 10
30.23655272540151
 20
11.24120270417972
 10
30.23655272540151
 20
11.35120270417973
 42
-0.4142135623730951
 10
30.2515527254015
 20
11.36620270417973
 10
30.34655272540149
 20
11.36620270417973
 42
-0.4142135623730951
 10
30.36155272540151
 20
11.35120270417973
 10
30.36155272540151
 20
11.11620270417972
 10
30.2995527254015
 20
11.11620270417972
 10
30.2995527254015
 20
11.05420270417972
 10
30.23655272540151
 20
11.05420270417972
 10
30.23655272540151
 20
11.11620270417972
 10
29.36155272540151
 20
11.11620270417972
 10
29.36155272540151
 20
13.11620270417973
 10
30.00155272540151
 20
13.11620270417973
 42
-1.0
 10
30.00155272540151
 20
13.08420270417973
 10
29.99555272540149
 20
13.08420270417973
 42
1.0
 10
29.99555272540149
 20
13.04020270417973
 10
30.16455272540151
 20
13.04020270417973
 42
1.0
 10
30.16455272540151
 20
13.08420270417973
 10
30.15855272540151
 20
13.08420270417973
 42
-1.0
 10
30.15855272540151
 20
13.11620270417973
 10
30.23655272540151
 20
13.11620270417973
 10
30.23655272540151
 20
12.99120270417972
  0
LWPOLYLINE
  5
56F7
330
17
100
AcDbEntity
  8
R-SWTS-DET1
100
AcDbPolyline
 90
        4
 70
     1
 43
0.0
 10
29.98655272540151
 20
11.24120270417972
 10
29.48655272540151
 20
11.24120270417972
 10
29.4865527254015
 20
12.99120270417972
 10
29.98655272540151
 20
12.99120270417972
  0
LWPOLYLINE
  5
56F8
330
17
100
AcDbEntity
  8
R-SWTS-DET1
100
AcDbPolyline
 90
       30
 70
     1
 43
0.0
 10
30.8095527254015
 20
11.89820270417974
 10
30.7995527254015
 20
11.88820270417973
 10
30.7995527254015
 20
11.16232190505657
 10
30.8625527254015
 20
11.05320270417973
 10
31.11955272540149
 20
11.05320270417973
 42
0.4142135623731125
 10
31.14955272540149
 20
11.08320270417973
 10
31.14955272540149
 20
11.11620270417973
 10
31.02455272540149
 20
11.11620270417973
 42
-0.4142135623731002
 10
30.9245527254015
 20
11.21620270417973
 10
30.9245527254015
 20
11.49120270417973
 10
31.0495527254015
 20
11.49120270417973
 10
31.0495527254015
 20
11.59120270417973
 10
30.9245527254015
 20
11.59120270417973
 10
30.9245527254015
 20
12.39320270417973
 10
31.0495527254015
 20
12.39320270417973
 10
31.0495527254015
 20
12.49320270417973
 10
30.9245527254015
 20
12.49320270417973
 10
30.9245527254015
 20
13.16620270417973
 10
31.0495527254015
 20
13.16620270417973
 10
31.0495527254015
 20
13.29120270417973
 10
29.9865527254015
 20
13.29120270417973
 10
29.9865527254015
 20
13.16620270417973
 10
30.7995527254015
 20
13.16620270417973
 10
30.7995527254015
 20
12.61320270417973
 10
30.8095527254015
 20
12.60320270417973
 10
30.7995527254015
 20
12.59320270417973
 10
30.7995527254015
 20
12.30120270417973
 10
30.8095527254015
 20
12.29120270417973
 10
30.7995527254015
 20
12.28120270417973
 10
30.7995527254015
 20
11.90820270417973
  0
LINE
  5
56F9
330
17
100
AcDbEntity
  8
R-SWTS-DET1
100
AcDbLine
 10
29.36155272540151
 20
11.11620270417972
 30
0.0
 11
27.22457797333055
 21
11.11620270417972
 31
0.0
  0
ARC
  5
56FA
330
17
100
AcDbEntity
  8
R-SWTS-DET3
100
AcDbCircle
 10
30.61089805837927
 20
11.09312219195773
 30
0.0
 40
0.33
100
AcDbArc
 50
187.6481511365876
 51
224.6509810497503
  0
ARC
  5
56FB
330
17
100
AcDbEntity
  8
R-SWTS-DET3
100
AcDbCircle
 10
30.61089805837927
 20
11.09312219195773
 30
0.0
 40
0.29
100
AcDbArc
 50
176.4254850005557
 51
233.1035989716691
  0
ARC
  5
56FC
330
17
100
AcDbEntity
  8
R-SWTS-DET3
100
AcDbCircle
 10
30.61089805837927
 20
11.09312219195773
 30
0.0
 40
0.25
100
AcDbArc
 50
175.8526310063232
 51
248.0756954535235
  0
ARC
  5
56FD
330
17
100
AcDbEntity
  8
R-SWTS-DET3
100
AcDbCircle
 10
29.2681967649187
 20
10.98620270417962
 30
0.0
 40
0.25
100
AcDbArc
 50
329.9999999999997
 51
30.00000000000014
  0
ARC
  5
56FE
330
17
100
AcDbEntity
  8
R-SWTS-DET3
100
AcDbCircle
 10
29.37874996296672
 20
10.98620270417962
 30
0.0
 40
0.25
100
AcDbArc
 50
329.9999999999997
 51
30.00000000000014
  0
ARC
  5
56FF
330
17
100
AcDbEntity
  8
R-SWTS-DET3
100
AcDbCircle
 10
29.32491748417773
 20
10.98620270417962
 30
0.0
 40
0.25
100
AcDbArc
 50
329.9999999999997
 51
30.00000000000014
  0
ARC
  5
5700
330
17
100
AcDbEntity
  8
R-SWTS-DET3
100
AcDbCircle
 10
29.14504637445539
 20
10.98620270417962
 30
0.0
 40
0.25
100
AcDbArc
 50
329.9999999999997
 51
30.00000000000014
  0
ARC
  5
5701
330
17
100
AcDbEntity
  8
R-SWTS-DET3
100
AcDbCircle
 10
29.20483307853924
 20
10.98620270417962
 30
0.0
 40
0.25
100
AcDbArc
 50
329.9999999999997
 51
30.00000000000014
  0
ARC
  5
5702
330
17
100
AcDbEntity
  8
R-SWTS-DET3
100
AcDbCircle
 10
30.61089805837927
 20
11.09312219195773
 30
0.0
 40
0.41
100
AcDbArc
 50
204.0714688220947
 51
214.4479469667787
  0
ARC
  5
5703
330
17
100
AcDbEntity
  8
R-SWTS-DET3
100
AcDbCircle
 10
30.61089805837927
 20
11.09312219195773
 30
0.0
 40
0.3699999999999999
100
AcDbArc
 50
186.8171579023332
 51
218.8151181204553
  0
ARC
  5
5704
330
17
100
AcDbEntity
  8
R-SWTS-DET3
100
AcDbCircle
 10
29.61465305012253
 20
10.98620270417962
 30
0.0
 40
0.25
100
AcDbArc
 50
329.9999999999997
 51
30.00000000000014
  0
ARC
  5
5705
330
17
100
AcDbEntity
  8
R-SWTS-DET3
100
AcDbCircle
 10
29.56150931315911
 20
10.98620270417962
 30
0.0
 40
0.25
100
AcDbArc
 50
329.9999999999997
 51
30.00000000000014
  0
LWPOLYLINE
  5
5706
330
17
100
AcDbEntity
  8
R-SWTS-DET2
100
AcDbPolyline
 90
        4
 70
     1
 43
0.02
 10
30.2365527254015
 20
10.86120270417963
 10
29.9245527254015
 20
10.86120270417963
 10
29.9245527254015
 20
11.11120270417962
 10
30.2365527254015
 20
11.11120270417962
  0
ARC
  5
5707
330
17
100
AcDbEntity
  8
R-SWTS-DET3
100
AcDbCircle
 10
29.44142490752062
 20
10.98620270417962
 30
0.0
 40
0.25
100
AcDbArc
 50
329.9999999999997
 51
30.00000000000014
  0
ARC
  5
5708
330
17
100
AcDbEntity
  8
R-SWTS-DET3
100
AcDbCircle
 10
29.50478859390008
 20
10.98620270417962
 30
0.0
 40
0.25
100
AcDbArc
 50
329.9999999999997
 51
30.00000000000014
  0
INSERT
  5
5709
330
17
100
AcDbEntity
  8
R-SWTS-DET3
100
AcDbBlockReference
  2
*X0
 10
43.49763229094944
 20
6.043315363255519
 30
0.0
 41
-1.0
1001
ACAD
1000
HATCH
1002
{
1070
    16
1000
ANSI31
1040
0.2
1040
0.0
1002
}
  0
LINE
  5
570A
330
17
100
AcDbEntity
  8
R-SWTS-DET1
100
AcDbLine
 10
29.36155272540151
 20
13.11620270417973
 30
0.0
 11
27.21709241205017
 21
13.11620270417973
 31
0.0
  0
LINE
  5
570B
330
17
100
AcDbEntity
  8
R-SWTS-DET1
100
AcDbLine
 10
29.9865527254015
 20
13.29120270417973
 30
0.0
 11
27.22457797333055
 21
13.29120270417973
 31
0.0
  0
LINE
  5
570C
330
17
100
AcDbEntity
  8
R-SWTS-DET1
100
AcDbLine
 10
31.0495527254015
 20
16.36120270417966
 30
0.0
 11
27.21720224113524
 21
16.36120270417966
 31
0.0
  0
LINE
  5
570D
330
17
100
AcDbEntity
  8
R-SWTS-DET1
100
AcDbLine
 10
27.21720224113521
 20
12.34216328484281
 30
0.0
 11
27.21720224113521
 21
16.57662808550133
 31
0.0
  0
LINE
  5
570E
330
17
100
AcDbEntity
  8
R-SWTS-DET1
100
AcDbLine
 10
27.21720224113521
 20
12.130321957742
 30
0.0
 11
27.4294544312581
 21
12.18324237240444
 31
0.0
  0
LINE
  5
570F
330
17
100
AcDbEntity
  8
R-SWTS-DET1
100
AcDbLine
 10
27.4294544312581
 20
12.18324237240444
 30
0.0
 11
27.00462985342269
 21
12.28916303595483
 31
0.0
  0
LINE
  5
5710
330
17
100
AcDbEntity
  8
R-SWTS-DET1
100
AcDbLine
 10
27.00462985342269
 20
12.28916303595483
 30
0.0
 11
27.21720224113521
 21
12.34216328484281
 31
0.0
  0
LINE
  5
5712
330
17
100
AcDbEntity
  8
R-SWTS-DET2
100
AcDbLine
 10
30.16820106957459
 20
13.16195561418335
 30
0.0
 11
29.9919043812284
 21
13.16195561418335
 31
0.0
  0
ARC
  5
5713
330
17
100
AcDbEntity
  8
R-SWTS-DET2
100
AcDbCircle
 10
30.16820106957459
 20
13.13945561418337
 30
0.0
 40
0.0224999999999795
100
AcDbArc
 50
270.0
 51
90.0
  0
ARC
  5
5714
330
17
100
AcDbEntity
  8
R-SWTS-DET2
100
AcDbCircle
 10
29.9919043812284
 20
13.13945561418337
 30
0.0
 40
0.0224999999999795
100
AcDbArc
 50
90.0
 51
270.0
  0
ARC
  5
5715
330
17
100
AcDbEntity
  8
R-SWTS-DET2
100
AcDbCircle
 10
30.9853513254015
 20
12.59820270417964
 30
0.0
 40
0.3367977
100
AcDbArc
 50
143.0333000000001
 51
216.9667999999999
  0
LINE
  5
5716
330
17
100
AcDbEntity
  8
R-SWTS-DET2
100
AcDbLine
 10
31.5495527254015
 20
12.67420262417964
 30
0.0
 11
31.5495527254015
 21
12.52220278417964
 31
0.0
  0
LINE
  5
5717
330
17
100
AcDbEntity
  8
R-SWTS-DET2
100
AcDbLine
 10
30.7995527254015
 20
12.81070270417964
 30
0.0
 11
30.7995527254015
 21
12.38570270417964
 31
0.0
  0
LINE
  5
5718
330
17
100
AcDbEntity
  8
R-SWTS-DET2
100
AcDbLine
 10
30.7995527254015
 20
12.49020270417964
 30
0.0
 11
31.40655402540149
 21
12.49020270417964
 31
0.0
  0
ARC
  5
5719
330
17
100
AcDbEntity
  8
R-SWTS-DET2
100
AcDbCircle
 10
30.7362297054015
 20
12.41070280417964
 30
0.0
 40
0.02500004
100
AcDbArc
 50
216.9670000000002
 51
270.0
  0
LINE
  5
571A
330
17
100
AcDbEntity
  8
R-SWTS-DET2
100
AcDbLine
 10
30.7362297054015
 20
12.38570270417964
 30
0.0
 11
30.7995527254015
 21
12.38570270417964
 31
0.0
  0
LINE
  5
571B
330
17
100
AcDbEntity
  8
R-SWTS-DET2
100
AcDbLine
 10
31.4065548254015
 20
12.49020310417964
 30
0.0
 11
31.5495563254015
 21
12.52220332417964
 31
0.0
  0
LINE
  5
571C
330
17
100
AcDbEntity
  8
R-SWTS-DET2
100
AcDbLine
 10
30.7995527254015
 20
12.70620270417964
 30
0.0
 11
31.4065531254015
 21
12.70620270417964
 31
0.0
  0
ARC
  5
571D
330
17
100
AcDbEntity
  8
R-SWTS-DET2
100
AcDbCircle
 10
30.7362297054015
 20
12.78570260417964
 30
0.0
 40
0.02500004
100
AcDbArc
 50
89.99979999999942
 51
143.0329999999998
  0
LINE
  5
571E
330
17
100
AcDbEntity
  8
R-SWTS-DET2
100
AcDbLine
 10
30.7362297054015
 20
12.81070270417964
 30
0.0
 11
30.7995527254015
 21
12.81070270417964
 31
0.0
  0
LINE
  5
571F
330
17
100
AcDbEntity
  8
R-SWTS-DET2
100
AcDbLine
 10
31.4065548254015
 20
12.70620230417964
 30
0.0
 11
31.5495563254015
 21
12.67420208417964
 31
0.0
  0
LWPOLYLINE
  5
5720
330
17
100
AcDbEntity
  8
R-SWTS-DET1
  6
Continuous
100
AcDbPolyline
 90
        6
 70
     0
 43
0.0
 10
35.5495527254015
 20
9.362293671167243
 10
35.5495527254015
 20
12.14245270417962
 10
35.33730053527863
 20
12.19537311884205
 10
35.76212511311404
 20
12.30129378239245
 10
35.54987292299117
 20
12.35421419705488
 10
35.54987292299117
 20
16.71398770135526
  0
LINE
  5
5721
330
17
100
AcDbEntity
  8
R-SWTS-DET3
100
AcDbLine
 10
33.5495527254015
 20
11.11120270417963
 30
0.0
 11
35.5495527254015
 21
11.11120270417963
 31
0.0
  0
LWPOLYLINE
  5
5722
330
17
100
AcDbEntity
  8
R-SWTS-DET3
100
AcDbPolyline
 90
        4
 70
     0
 43
0.0
 10
35.5495527254015
 20
10.86120270417962
 10
32.5495527254015
 20
10.86120270417962
 10
32.5495527254015
 20
10.61120270417962
 10
35.5495527254015
 20
10.61120270417962
  0
LWPOLYLINE
  5
5723
330
17
100
AcDbEntity
  8
R-SWTS-DET2
100
AcDbPolyline
 90
        8
 70
     1
 43
0.0
 10
33.05655272540155
 20
10.95533935575987
 42
-0.3966354997270823
 10
33.02836320421706
 20
10.92539403615131
 10
32.36636320421701
 20
10.88536985235446
 42
-0.4320128626193695
 10
32.3345527254015
 20
10.91531517196301
 10
32.3345527254015
 20
11.01120270417964
 42
-0.4142135623730941
 10
32.3645527254015
 20
11.04120270417964
 10
33.02655272540155
 20
11.04120270417964
 42
-0.4142135623730863
 10
33.05655272540155
 20
11.01120270417964
  0
ARC
  5
5724
330
17
100
AcDbEntity
  8
R-SWTS-DET3
100
AcDbCircle
 10
33.40631685690292
 20
10.98620270417962
 30
0.0
 40
0.25
100
AcDbArc
 50
149.9999999999998
 51
210.0000000000003
  0
ARC
  5
5725
330
17
100
AcDbEntity
  8
R-SWTS-DET3
100
AcDbCircle
 10
33.70627237226376
 20
10.98620270417962
 30
0.0
 40
0.25
100
AcDbArc
 50
149.9999999999998
 51
210.0000000000003
  0
ARC
  5
5726
330
17
100
AcDbEntity
  8
R-SWTS-DET3
100
AcDbCircle
 10
33.7660590763476
 20
10.98620270417962
 30
0.0
 40
0.25
100
AcDbArc
 50
149.9999999999998
 51
210.0000000000003
  0
ARC
  5
5727
330
17
100
AcDbEntity
  8
R-SWTS-DET3
100
AcDbCircle
 10
33.58618796662526
 20
10.98620270417962
 30
0.0
 40
0.25
100
AcDbArc
 50
149.9999999999998
 51
210.0000000000003
  0
ARC
  5
5728
330
17
100
AcDbEntity
  8
R-SWTS-DET3
100
AcDbCircle
 10
33.46968054328238
 20
10.98620270417962
 30
0.0
 40
0.25
100
AcDbArc
 50
149.9999999999998
 51
210.0000000000003
  0
ARC
  5
5729
330
17
100
AcDbEntity
  8
R-SWTS-DET3
100
AcDbCircle
 10
33.53235548783627
 20
10.98620270417962
 30
0.0
 40
0.25
100
AcDbArc
 50
149.9999999999998
 51
210.0000000000003
  0
ARC
  5
572A
330
17
100
AcDbEntity
  8
R-SWTS-DET3
100
AcDbCircle
 10
33.6429086858843
 20
10.98620270417962
 30
0.0
 40
0.25
100
AcDbArc
 50
149.9999999999998
 51
210.0000000000003
  0
LINE
  5
572B
330
17
100
AcDbEntity
  8
R-SWTS-DET1
100
AcDbLine
 10
33.54955272540138
 20
16.36120270417966
 30
0.0
 11
35.54955272540138
 21
16.36120270417966
 31
0.0
  0
TEXT
  5
57F7
330
17
100
AcDbEntity
  8
0
 62
     2
100
AcDbText
 10
25.52462433307044
 20
34.12680782602715
 30
0.0
 40
0.187
  1
PROJECT-OUT HEAD
100
AcDbText
  0
LWPOLYLINE
  5
597C
330
17
100
AcDbEntity
  8
R-SWTS-DET2
100
AcDbPolyline
 90
        4
 70
     1
 43
0.02
 10
22.74999036094701
 20
35.11164776410848
 10
22.74999036094701
 20
34.79964776410849
 10
22.99999036094701
 20
34.79964776410849
 10
22.99999036094701
 20
35.11164776410848
  0
LWPOLYLINE
  5
597D
330
17
100
AcDbEntity
  8
R-SWTS-DET3
100
AcDbPolyline
 90
        4
 70
     0
 43
0.0
 10
22.74999036094701
 20
32.0912580698471
 10
22.74999036094701
 20
35.11164776410847
 10
22.49999036094692
 20
35.11164776410847
 10
22.49999036094692
 20
32.0912580698471
  0
LINE
  5
597F
330
17
100
AcDbEntity
  8
R-SWTS-DET1
100
AcDbLine
 10
22.99999036094712
 20
34.23664776410851
 30
0.0
 11
22.99999036094712
 21
32.09057996411456
 31
0.0
  0
ARC
  5
5980
330
17
100
AcDbEntity
  8
R-SWTS-DET3
100
AcDbCircle
 10
22.87499036094701
 20
34.48974808882951
 30
0.0
 40
0.25
100
AcDbArc
 50
59.99999999999997
 51
120.0
  0
ARC
  5
5981
330
17
100
AcDbEntity
  8
R-SWTS-DET3
100
AcDbCircle
 10
22.87499036094701
 20
34.37988363260706
 30
0.0
 40
0.25
100
AcDbArc
 50
59.99999999999997
 51
120.0
  0
ARC
  5
5982
330
17
100
AcDbEntity
  8
R-SWTS-DET3
100
AcDbCircle
 10
22.87499036094701
 20
34.3165199462276
 30
0.0
 40
0.25
100
AcDbArc
 50
59.99999999999997
 51
120.0
  0
ARC
  5
5983
330
17
100
AcDbEntity
  8
R-SWTS-DET3
100
AcDbCircle
 10
22.87499036094701
 20
34.24957927755253
 30
0.0
 40
0.25
100
AcDbArc
 50
59.99999999999997
 51
120.0
  0
ARC
  5
5984
330
17
100
AcDbEntity
  8
R-SWTS-DET3
100
AcDbCircle
 10
22.87499036094701
 20
34.20001252288472
 30
0.0
 40
0.25
100
AcDbArc
 50
59.99999999999997
 51
120.0
  0
ARC
  5
5985
330
17
100
AcDbEntity
  8
R-SWTS-DET3
100
AcDbCircle
 10
22.87499036094701
 20
34.4366043518661
 30
0.0
 40
0.25
100
AcDbArc
 50
59.99999999999997
 51
120.0
  0
ARC
  5
5986
330
17
100
AcDbEntity
  8
R-SWTS-DET3
100
AcDbCircle
 10
22.87499036094701
 20
34.14329180362569
 30
0.0
 40
0.25
100
AcDbArc
 50
59.99999999999997
 51
120.0
  0
ARC
  5
5987
330
17
100
AcDbEntity
  8
R-SWTS-DET3
100
AcDbCircle
 10
22.87499036094701
 20
34.07992811724623
 30
0.0
 40
0.25
100
AcDbArc
 50
59.99999999999997
 51
120.0
  0
ARC
  5
5988
330
17
100
AcDbEntity
  8
R-SWTS-DET3
100
AcDbCircle
 10
22.87499036094701
 20
34.02014141316238
 30
0.0
 40
0.25
100
AcDbArc
 50
59.99999999999997
 51
120.0
  0
ARC
  5
5989
330
17
100
AcDbEntity
  8
R-SWTS-DET3
100
AcDbCircle
 10
22.18563258881966
 20
35.29528494484036
 30
0.0
 40
0.7500000000000182
100
AcDbArc
 50
345.8270557847265
 51
359.5169127211881
  0
ARC
  5
598A
330
17
100
AcDbEntity
  8
R-SWTS-DET3
100
AcDbCircle
 10
22.13538883528471
 20
35.29528494484036
 30
0.0
 40
0.7500000000000031
100
AcDbArc
 50
345.8270557847263
 51
2.449590583872386
  0
ARC
  5
598B
330
17
100
AcDbEntity
  8
R-SWTS-DET3
100
AcDbCircle
 10
22.13538883528473
 20
35.29528494484036
 30
0.0
 40
0.7000000000000002
100
AcDbArc
 50
344.7911146078246
 51
5.440040508929888
  0
ARC
  5
598C
330
17
100
AcDbEntity
  8
R-SWTS-DET3
100
AcDbCircle
 10
22.03493403548439
 20
35.29528494484036
 30
0.0
 40
0.7000000000000002
100
AcDbArc
 50
344.7911146078246
 51
5.440040508929888
  0
ARC
  5
598D
330
17
100
AcDbEntity
  8
R-SWTS-DET3
100
AcDbCircle
 10
22.03493403548439
 20
35.29528494484036
 30
0.0
 40
0.6500000000000002
100
AcDbArc
 50
343.5894113610055
 51
5.859917452535009
  0
ARC
  5
598E
330
17
100
AcDbEntity
  8
R-SWTS-DET3
100
AcDbCircle
 10
22.03493403548439
 20
35.29528494484036
 30
0.0
 40
0.5
100
AcDbArc
 50
338.4523820096334
 51
19.07132453529038
  0
ARC
  5
598F
330
17
100
AcDbEntity
  8
R-SWTS-DET3
100
AcDbCircle
 10
22.03493403548439
 20
35.29528494484036
 30
0.0
 40
0.55
100
AcDbArc
 50
340.4952027633748
 51
3.686434369238776
  0
ARC
  5
5990
330
17
100
AcDbEntity
  8
R-SWTS-DET3
100
AcDbCircle
 10
22.03493403548439
 20
35.29528494484036
 30
0.0
 40
0.6000000000000001
100
AcDbArc
 50
342.1779341572691
 51
6.350174967176934
  0
ARC
  5
5991
330
17
100
AcDbEntity
  8
R-SWTS-DET3
100
AcDbCircle
 10
22.03493403548439
 20
35.29528494484036
 30
0.0
 40
0.7500000000000002
100
AcDbArc
 50
345.8270557847263
 51
5.076384855441388
  0
LINE
  5
5992
330
17
100
AcDbEntity
  8
R-SWTS-DET1
100
AcDbLine
 10
24.99999036094712
 20
34.23664776410851
 30
0.0
 11
24.99999036094712
 21
32.11338855827458
 31
0.0
  0
LWPOLYLINE
  5
5993
330
17
100
AcDbEntity
  8
R-SWTS-DET3
100
AcDbPolyline
 90
        4
 70
     0
 43
0.0
 10
22.74383232615433
 20
30.26259217611883
 10
22.74383232615433
 20
27.24819062878769
 10
22.49383232615433
 20
27.24819062878769
 10
22.49383232615433
 20
30.26259217611883
  0
LINE
  5
5994
330
17
100
AcDbEntity
  8
R-SWTS-DET1
100
AcDbLine
 10
22.99383232615436
 20
28.12369062878769
 30
0.0
 11
22.99383232615436
 21
30.26259217611883
 31
0.0
  0
ARC
  5
5996
330
17
100
AcDbEntity
  8
R-SWTS-DET2
100
AcDbCircle
 10
22.02877600069168
 20
27.06505344805582
 30
0.0
 40
0.55
100
AcDbArc
 50
356.3135656307612
 51
19.50479723662537
  0
ARC
  5
5997
330
17
100
AcDbEntity
  8
R-SWTS-DET2
100
AcDbCircle
 10
22.02877600069168
 20
27.06505344805582
 30
0.0
 40
0.5
100
AcDbArc
 50
340.9286754647094
 51
21.54761799036662
  0
LWPOLYLINE
  5
5998
330
17
100
AcDbEntity
  8
R-SWTS-DET2
100
AcDbPolyline
 90
        4
 70
     1
 43
0.0
 10
22.58796554033047
 20
27.24819062878769
 10
22.83796554033049
 20
27.24819062878769
 10
22.83796554033049
 20
26.99819062878769
 10
22.58796554033047
 20
26.99819062878769
  0
ARC
  5
5999
330
17
100
AcDbEntity
  8
R-SWTS-DET3
100
AcDbCircle
 10
22.86883232615436
 20
28.3401969797338
 30
0.0
 40
0.25
100
AcDbArc
 50
239.9999999999999
 51
300.0
  0
ARC
  5
599A
330
17
100
AcDbEntity
  8
R-SWTS-DET3
100
AcDbCircle
 10
22.86883232615436
 20
28.28041027564994
 30
0.0
 40
0.25
100
AcDbArc
 50
239.9999999999999
 51
300.0
  0
ARC
  5
599B
330
17
100
AcDbEntity
  8
R-SWTS-DET3
100
AcDbCircle
 10
22.86883232615436
 20
28.21704658927048
 30
0.0
 40
0.25
100
AcDbArc
 50
239.9999999999999
 51
300.0
  0
ARC
  5
599C
330
17
100
AcDbEntity
  8
R-SWTS-DET3
100
AcDbCircle
 10
22.86883232615436
 20
28.16032587001145
 30
0.0
 40
0.25
100
AcDbArc
 50
239.9999999999999
 51
300.0
  0
ARC
  5
599D
330
17
100
AcDbEntity
  8
R-SWTS-DET3
100
AcDbCircle
 10
22.86883232615436
 20
28.11075911534365
 30
0.0
 40
0.25
100
AcDbArc
 50
239.9999999999999
 51
300.0
  0
ARC
  5
599E
330
17
100
AcDbEntity
  8
R-SWTS-DET3
100
AcDbCircle
 10
22.86883232615436
 20
28.04381844666857
 30
0.0
 40
0.25
100
AcDbArc
 50
239.9999999999999
 51
300.0
  0
ARC
  5
599F
330
17
100
AcDbEntity
  8
R-SWTS-DET3
100
AcDbCircle
 10
22.86883232615436
 20
27.92373404103007
 30
0.0
 40
0.25
100
AcDbArc
 50
239.9999999999999
 51
300.0
  0
ARC
  5
59A0
330
17
100
AcDbEntity
  8
R-SWTS-DET3
100
AcDbCircle
 10
22.86883232615436
 20
27.87059030406665
 30
0.0
 40
0.25
100
AcDbArc
 50
239.9999999999999
 51
300.0
  0
ARC
  5
59A1
330
17
100
AcDbEntity
  8
R-SWTS-DET3
100
AcDbCircle
 10
22.86883232615436
 20
27.98045476028911
 30
0.0
 40
0.25
100
AcDbArc
 50
239.9999999999999
 51
300.0
  0
LWPOLYLINE
  5
59A2
330
17
100
AcDbEntity
  8
R-SWTS-DET2
100
AcDbPolyline
 90
        4
 70
     1
 43
0.02
 10
22.74383232615436
 20
27.24869062878768
 10
22.74383232615436
 20
27.56069062878768
 10
22.99383232615436
 20
27.56069062878768
 10
22.99383232615436
 20
27.24869062878768
  0
LINE
  5
59A3
330
17
100
AcDbEntity
  8
R-SWTS-DET1
100
AcDbLine
 10
24.99383232615443
 20
28.12369062878767
 30
0.0
 11
24.99383232615443
 21
30.26259217611883
 31
0.0
  0
TEXT
  5
5A05
330
17
100
AcDbEntity
  8
PART_NUMBERS
100
AcDbText
 10
28.82944614598353
 20
39.01261747189596
 30
0.0
 40
0.25
  1
162084 VENT ADAPTER
100
AcDbText
  0
TEXT
  5
5A06
330
17
100
AcDbEntity
  8
PART_NUMBERS
100
AcDbText
 10
28.82944614598353
 20
38.49018277930337
 30
0.0
 40
0.25
  1
WITH 027860 GASKET
100
AcDbText
  0
LINE
  5
5A07
330
17
100
AcDbEntity
  8
R-ANNO-DIMS
  6
ByBlock
100
AcDbLine
 10
21.49808575999141
 20
38.68203038318043
 30
0.0
 11
21.49808575999141
 21
40.24162351886883
 31
0.0
  0
TEXT
  5
5A08
330
17
100
AcDbEntity
  8
PART_NUMBERS
100
AcDbText
 10
28.82944614598353
 20
23.55928019830909
 30
0.0
 40
0.25
  1
162084 VENT ADAPTER
100
AcDbText
  0
TEXT
  5
5A09
330
17
100
AcDbEntity
  8
PART_NUMBERS
100
AcDbText
 10
28.82944614598353
 20
23.03684550571651
 30
0.0
 40
0.25
  1
WITH 027861 GASKET
100
AcDbText
  0
LINE
  5
5A4F
330
17
100
AcDbEntity
  8
0
  6
DASHED
100
AcDbLine
 10
12.75569902465599
 20
30.35916825787209
 30
0.0
 11
12.75569902465599
 21
25.18763406660699
 31
0.0
  0
LINE
  5
5A50
330
17
100
AcDbEntity
  8
0
  6
DASHED
100
AcDbLine
 10
12.44319902465599
 20
30.35916825787209
 30
0.0
 11
12.44319902465599
 21
25.18763406660699
 31
0.0
  0
LINE
  5
5A51
330
17
100
AcDbEntity
  8
0
  6
DASHED
100
AcDbLine
 10
6.755699024655996
 20
30.35916825787209
 30
0.0
 11
6.755699024655996
 21
25.18763406660699
 31
0.0
  0
LINE
  5
5A52
330
17
100
AcDbEntity
  8
0
  6
DASHED
100
AcDbLine
 10
6.443199024655989
 20
30.35916825787208
 30
0.0
 11
6.443199024655996
 21
25.18763406660699
 31
0.0
  0
LINE
  5
5A53
330
17
100
AcDbEntity
  8
0
  6
Continuous
100
AcDbLine
 10
12.60727104886859
 20
30.35916825787209
 30
0.0
 11
12.6072710488686
 21
25.18763406660699
 31
0.0
  0
LINE
  5
5A54
330
17
100
AcDbEntity
  8
0
  6
Continuous
100
AcDbLine
 10
6.607271048868597
 20
30.35916825787208
 30
0.0
 11
6.607271048868597
 21
25.18763406660699
 31
0.0
  0
TEXT
  5
5A55
330
17
100
AcDbEntity
  8
0
  6
Continuous
 62
     2
100
AcDbText
 10
6.028880666280182
 20
22.03525919639191
 30
0.0
 40
0.5
  1
TYPICAL ELEVATION
 72
     1
 11
9.541841102842255
 21
22.03525919639191
 31
0.0
100
AcDbText
  0
LINE
  5
5A56
330
17
100
AcDbEntity
  8
0
100
AcDbLine
 10
14.94154353138159
 20
33.35916825787208
 30
0.0
 11
4.398684283396079
 21
33.35916825787208
 31
0.0
  0
LINE
  5
5A57
330
17
100
AcDbEntity
  8
0
100
AcDbLine
 10
14.94154353138159
 20
33.6716682578721
 30
0.0
 11
4.398684283396079
 21
33.67166825787209
 31
0.0
  0
LINE
  5
5A58
330
17
100
AcDbEntity
  8
0
100
AcDbLine
 10
14.94154353138159
 20
30.67166825787209
 30
0.0
 11
4.398684283396079
 21
30.67166825787209
 31
0.0
  0
LINE
  5
5A59
330
17
100
AcDbEntity
  8
0
100
AcDbLine
 10
14.94154353138159
 20
30.35916825787208
 30
0.0
 11
4.398684283396079
 21
30.35916825787208
 31
0.0
  0
LINE
  5
5A5A
330
17
100
AcDbEntity
  8
0
  6
DASHED
100
AcDbLine
 10
12.75569902465599
 20
33.35916825787208
 30
0.0
 11
12.75569902465599
 21
30.6716682578721
 31
0.0
  0
LINE
  5
5A5B
330
17
100
AcDbEntity
  8
0
  6
DASHED
100
AcDbLine
 10
12.44319902465599
 20
33.35916825787208
 30
0.0
 11
12.44319902465599
 21
30.6716682578721
 31
0.0
  0
LINE
  5
5A5C
330
17
100
AcDbEntity
  8
0
  6
DASHED
100
AcDbLine
 10
6.443199024655996
 20
33.35916825787209
 30
0.0
 11
6.443199024655989
 21
30.67166825787209
 31
0.0
  0
LINE
  5
5A5D
330
17
100
AcDbEntity
  8
0
  6
DASHED
100
AcDbLine
 10
6.755699024655996
 20
33.35916825787208
 30
0.0
 11
6.755699024655996
 21
30.67166825787209
 31
0.0
  0
LINE
  5
5A5E
330
17
100
AcDbEntity
  8
0
  6
Continuous
100
AcDbLine
 10
12.60727104886859
 20
33.35916825787208
 30
0.0
 11
12.60727104886859
 21
30.6716682578721
 31
0.0
  0
LINE
  5
5A5F
330
17
100
AcDbEntity
  8
0
  6
Continuous
100
AcDbLine
 10
6.607271048868597
 20
33.35916825787209
 30
0.0
 11
6.607271048868597
 21
30.67166825787209
 31
0.0
  0
LINE
  5
5A60
330
17
100
AcDbEntity
  8
R-SWTS-DET1
  6
DASHED
100
AcDbLine
 10
9.599449024655996
 20
33.35916825787208
 30
0.0
 11
12.44319902465599
 21
30.67166825787209
 31
0.0
  0
LINE
  5
5A62
330
17
100
AcDbEntity
  8
R-SWTS-DET1
  6
DASHED
100
AcDbLine
 10
6.755699024655996
 20
30.67166825787209
 30
0.0
 11
9.599449024655996
 21
33.35916825787208
 31
0.0
  0
TEXT
  5
5A64
330
17
100
AcDbEntity
  8
0
  6
Continuous
 62
     2
100
AcDbText
 10
7.191751074901369
 20
22.94723218204094
 30
0.0
 40
0.5
  1
PROJECT-OUT
 72
     1
 11
9.675209465078722
 21
22.94723218204094
 31
0.0
100
AcDbText
  0
TEXT
  5
5A65
330
17
100
AcDbEntity
  8
0
  6
Continuous
 62
     2
100
AcDbText
 10
5.648097103270542
 20
23.61969221024676
 30
0.0
 40
0.5
  1
GLASSvent™ WINDOWS
 72
     1
 11
9.684590964116381
 21
23.61969221024676
 31
0.0
100
AcDbText
  0
LINE
  5
5A66
330
17
100
AcDbEntity
  8
0
  6
Continuous
100
AcDbLine
 10
6.607271048868597
 20
38.92896517204833
 30
0.0
 11
6.607271048868597
 21
33.6716682578721
 31
0.0
  0
LINE
  5
5A67
330
17
100
AcDbEntity
  8
0
  6
DASHED
100
AcDbLine
 10
6.443199024655996
 20
38.92896517204833
 30
0.0
 11
6.443199024655996
 21
33.6716682578721
 31
0.0
  0
LINE
  5
5A68
330
17
100
AcDbEntity
  8
0
  6
DASHED
100
AcDbLine
 10
6.755699024655996
 20
38.92896517204832
 30
0.0
 11
6.755699024655996
 21
33.67166825787211
 31
0.0
  0
LINE
  5
5A69
330
17
100
AcDbEntity
  8
0
  6
Continuous
100
AcDbLine
 10
12.6072710488686
 20
38.92896517204832
 30
0.0
 11
12.60727104886859
 21
33.67166825787211
 31
0.0
  0
LINE
  5
5A6A
330
17
100
AcDbEntity
  8
0
  6
DASHED
100
AcDbLine
 10
12.75569902465599
 20
38.92896517204832
 30
0.0
 11
12.75569902465599
 21
33.67166825787211
 31
0.0
  0
LINE
  5
5A6B
330
17
100
AcDbEntity
  8
0
  6
DASHED
100
AcDbLine
 10
12.44319902465599
 20
38.92896517204832
 30
0.0
 11
12.44319902465599
 21
33.67166825787211
 31
0.0
  0
LINE
  5
634A
330
17
100
AcDbEntity
  8
R-SWTS-DET1
100
AcDbLine
 10
18.88245801141249
 20
16.36120270417966
 30
0.0
 11
16.88245801141249
 21
16.36120270417966
 31
0.0
  0
TEXT
  5
634B
330
17
100
AcDbEntity
  8
PART_NUMBERS
  6
Continuous
100
AcDbText
 10
17.82452663073202
 20
16.71249484919671
 30
0.0
 40
0.25
  1
162027 SSG MULLION
100
AcDbText
  0
LINE
  5
634C
330
17
100
AcDbEntity
  8
R-SWTS-DET3
100
AcDbLine
 10
18.88245801141238
 20
11.11120270417963
 30
0.0
 11
16.88245801141238
 21
11.11120270417963
 31
0.0
  0
LWPOLYLINE
  5
634D
330
17
100
AcDbEntity
  8
R-SWTS-DET3
100
AcDbPolyline
 90
        4
 70
     0
 43
0.0
 10
16.88245801141238
 20
10.86120270417962
 10
19.88245801141238
 20
10.86120270417962
 10
19.88245801141238
 20
10.61120270417962
 10
16.88245801141238
 20
10.61120270417962
  0
LINE
  5
634E
330
17
100
AcDbEntity
  8
R-SWTS-DET1
100
AcDbLine
 10
16.88245801141238
 20
9.611202704179621
 30
0.0
 11
25.21480849567865
 21
9.611202704179621
 31
0.0
  0
LINE
  5
634F
330
17
100
AcDbEntity
  8
R-SWTS-DET2
100
AcDbLine
 10
16.88245801141238
 20
10.07144778215577
 30
0.0
 11
25.21480849567867
 21
10.07144778215577
 31
0.0
  0
LINE
  5
6350
330
17
100
AcDbEntity
  8
R-ANNO-DIMS
  6
ByBlock
100
AcDbLine
 10
18.69495801141303
 20
7.861202704179621
 30
0.0
 11
17.0699580114137
 21
7.861202704179621
 31
0.0
  0
LINE
  5
6351
330
17
100
AcDbEntity
  8
R-ANNO-DIMS
  6
ByBlock
100
AcDbLine
 10
21.38245801141303
 20
10.98620270417958
 30
0.0
 11
21.38245801141303
 21
7.736202704179621
 31
0.0
  0
LINE
  5
6352
330
17
100
AcDbEntity
  8
R-ANNO-DIMS
  6
ByBlock
100
AcDbLine
 10
21.38245801141303
 20
10.98620270417958
 30
0.0
 11
21.38245801141303
 21
7.736202704179621
 31
0.0
  0
LINE
  5
6353
330
17
100
AcDbEntity
  8
R-ANNO-DIMS
  6
ByBlock
100
AcDbLine
 10
18.88245801141303
 20
10.98620270417958
 30
0.0
 11
18.88245801141303
 21
7.736202704179621
 31
0.0
  0
LINE
  5
6354
330
17
100
AcDbEntity
  8
R-ANNO-DIMS
  6
ByBlock
100
AcDbLine
 10
18.88245801141303
 20
10.98620270417958
 30
0.0
 11
18.88245801141303
 21
7.736202704179621
 31
0.0
  0
LINE
  5
6355
330
17
100
AcDbEntity
  8
R-ANNO-DIMS
  6
ByBlock
100
AcDbLine
 10
21.56995801141304
 20
7.861202704179621
 30
0.0
 11
25.05054267521314
 21
7.861202704179621
 31
0.0
  0
TEXT
  5
6356
330
17
100
AcDbEntity
  8
R-ANNO-DIMS
  6
ByBlock
100
AcDbText
 10
22.03588033129209
 20
7.986202704179621
 30
0.0
 40
0.25
  1
VENT OPENING
 72
     1
 11
23.35545741178322
 21
8.111202704179621
 31
0.0
100
AcDbText
 73
     2
  0
SOLID
  5
6357
330
17
100
AcDbEntity
  8
R-ANNO-DIMS
  6
ByBlock
100
AcDbTrace
 10
24.97743443779099
 20
7.892452704179621
 30
0.0
 11
24.97743443779099
 21
7.829952704179621
 31
0.0
 12
25.16493443779099
 22
7.861202704179621
 32
0.0
 13
25.16493443779099
 23
7.861202704179621
 33
0.0
  0
LINE
  5
6358
330
17
100
AcDbEntity
  8
R-ANNO-DIMS
  6
ByBlock
100
AcDbLine
 10
19.06995801141303
 20
7.861202704179621
 30
0.0
 11
21.19495801141304
 21
7.861202704179621
 31
0.0
  0
SOLID
  5
6359
330
17
100
AcDbEntity
  8
R-ANNO-DIMS
  6
ByBlock
100
AcDbTrace
 10
21.19495801141304
 20
7.892452704179621
 30
0.0
 11
21.19495801141304
 21
7.829952704179621
 31
0.0
 12
21.38245801141303
 22
7.861202704179621
 32
0.0
 13
21.38245801141303
 23
7.861202704179621
 33
0.0
  0
SOLID
  5
635A
330
17
100
AcDbEntity
  8
R-ANNO-DIMS
  6
ByBlock
100
AcDbTrace
 10
21.56995801141304
 20
7.892452704179621
 30
0.0
 11
21.56995801141304
 21
7.829952704179621
 31
0.0
 12
21.38245801141303
 22
7.861202704179621
 32
0.0
 13
21.38245801141303
 23
7.861202704179621
 33
0.0
  0
TEXT
  5
635B
330
17
100
AcDbEntity
  8
R-ANNO-DIMS
  6
ByBlock
100
AcDbText
 10
19.68208284088097
 20
7.986202704179621
 30
0.0
 40
0.25
  1
2 1/2"
 72
     1
 11
20.13245801141303
 21
8.111202704179621
 31
0.0
100
AcDbText
 73
     2
  0
SOLID
  5
635C
330
17
100
AcDbEntity
  8
R-ANNO-DIMS
  6
ByBlock
100
AcDbTrace
 10
18.69495801141303
 20
7.892452704179621
 30
0.0
 11
18.69495801141303
 21
7.829952704179621
 31
0.0
 12
18.88245801141303
 22
7.861202704179621
 32
0.0
 13
18.88245801141303
 23
7.861202704179621
 33
0.0
  0
SOLID
  5
635D
330
17
100
AcDbEntity
  8
R-ANNO-DIMS
  6
ByBlock
100
AcDbTrace
 10
19.06995801141303
 20
7.892452704179621
 30
0.0
 11
19.06995801141303
 21
7.829952704179621
 31
0.0
 12
18.88245801141303
 22
7.861202704179621
 32
0.0
 13
18.88245801141303
 23
7.861202704179621
 33
0.0
  0
LWPOLYLINE
  5
635E
330
17
100
AcDbEntity
  8
R-SWTS-DET1
100
AcDbPolyline
 90
       43
 70
     1
 43
0.0
 10
19.31502943998381
 20
11.13684436278905
 42
-0.6693764950687389
 10
19.30445801141238
 20
11.11120270417961
 10
18.88245801141238
 20
11.11120270417963
 10
18.88245801141238
 20
16.36120270417963
 10
21.38245801141238
 20
16.36120270417966
 10
21.38245801141238
 20
11.11120270417963
 10
20.96045801141237
 20
11.11120270417961
 42
-0.6693764950687386
 10
20.94988658284093
 20
11.13684436278905
 42
0.1997729274168749
 10
20.97645801141238
 20
11.2006943144455
 10
20.97645801141238
 20
11.21120270417963
 42
0.4142135623730951
 10
20.92645801141238
 20
11.26120270417963
 10
20.83845801141238
 20
11.26120270417963
 42
0.4142135623730743
 10
20.78845801141238
 20
11.21120270417963
 10
20.78845801141238
 20
11.2006943144455
 42
0.1997729274170188
 10
20.81502943998389
 20
11.13684436278905
 42
-0.669376495068904
 10
20.80445801141246
 20
11.11120270417964
 10
20.67745801141239
 20
11.11120270417964
 42
-0.4142135623730951
 10
20.64745801141238
 20
11.14120270417964
 10
20.64745801141238
 20
11.23120270417959
 42
0.4142135623731471
 10
20.61745801141237
 20
11.26120270417959
 10
20.36345801141238
 20
11.26120270417955
 42
0.4142135623730516
 10
20.33345801141239
 20
11.23120270417955
 10
20.33345801141239
 20
11.14120270417964
 42
-0.4142135623731038
 10
20.30345801141239
 20
11.11120270417964
 10
20.16245801141237
 20
11.11120270417965
 10
20.13245801141237
 20
11.14120270417965
 10
20.10245801141237
 20
11.11120270417964
 10
19.96145801141237
 20
11.11120270417964
 42
-0.4142135623730951
 10
19.93145801141237
 20
11.14120270417964
 10
19.93145801141237
 20
11.23120270417948
 42
0.4142135623731471
 10
19.90145801141237
 20
11.26120270417948
 10
19.64745801141237
 20
11.26120270417944
 42
0.4142135623730516
 10
19.61745801141238
 20
11.23120270417944
 10
19.61745801141238
 20
11.14120270417964
 42
-0.4142135623730863
 10
19.58745801141238
 20
11.11120270417964
 10
19.46045801141228
 20
11.11120270417964
 42
-0.6693764950688821
 10
19.44988658284092
 20
11.136844362789
 42
0.1997729274170196
 10
19.47645801141237
 20
11.2006943144455
 10
19.47645801141237
 20
11.21120270417963
 42
0.4142135623730743
 10
19.42645801141238
 20
11.26120270417963
 10
19.33845801141238
 20
11.26120270417963
 42
0.4142135623730951
 10
19.28845801141237
 20
11.21120270417963
 10
19.28845801141237
 20
11.2006943144455
 42
0.1997729274168747
  0
LWPOLYLINE
  5
635F
330
17
100
AcDbEntity
  8
R-SWTS-DET1
100
AcDbPolyline
 90
       28
 70
     1
 43
0.0
 10
20.03145801141237
 20
11.30120270417949
 10
20.03145801141237
 20
11.24120270417964
 10
20.23345801141238
 20
11.24120270417964
 10
20.23345801141238
 20
11.30120270417954
 42
-0.4142135623730474
 10
20.29345801141237
 20
11.36120270417954
 10
21.04645801141241
 20
11.36120270417966
 42
-0.4142135623732339
 10
21.07645801141242
 20
11.33120270417965
 10
21.07645801141238
 20
11.21120270417961
 10
21.28245801141237
 20
11.21120270417963
 10
21.28245801141237
 20
16.26120270417963
 10
21.12245801141239
 20
16.26120270417963
 42
0.4142135623730951
 10
21.06245801141239
 20
16.20120270417963
 10
21.06245801141239
 20
16.14120270417964
 10
20.82745801141239
 20
16.14120270417964
 10
20.82745801141239
 20
16.20120270417965
 42
0.4142135623730974
 10
20.76745801141239
 20
16.26120270417965
 10
19.49745801141238
 20
16.26120270417964
 42
0.4142135623731013
 10
19.43745801141237
 20
16.20120270417964
 10
19.43745801141237
 20
16.14120270417964
 10
19.20245801141237
 20
16.14120270417964
 10
19.20245801141237
 20
16.20120270417964
 42
0.4142135623730951
 10
19.14245801141237
 20
16.26120270417963
 10
18.98245801141237
 20
16.26120270417963
 10
18.98245801141237
 20
11.21120270417963
 10
19.18845801141238
 20
11.21120270417961
 10
19.18845801141234
 20
11.33120270417936
 42
-0.4142135623731471
 10
19.21845801141232
 20
11.36120270417937
 10
19.97145801141236
 20
11.36120270417949
 42
-0.4142135623731341
  0
LINE
  5
6360
330
17
100
AcDbEntity
  8
R-SWTS-DET1
100
AcDbLine
 10
25.21480849567867
 20
12.34216328484281
 30
0.0
 11
25.21480849567867
 21
16.57662808550133
 31
0.0
  0
LINE
  5
6361
330
17
100
AcDbEntity
  8
R-SWTS-DET1
100
AcDbLine
 10
22.44545801141239
 20
13.29120270417973
 30
0.0
 11
25.20743276348333
 21
13.29120270417973
 31
0.0
  0
LINE
  5
6362
330
17
100
AcDbEntity
  8
R-SWTS-DET1
100
AcDbLine
 10
23.07045801141237
 20
13.11620270417973
 30
0.0
 11
25.21491832476371
 21
13.11620270417973
 31
0.0
  0
TEXT
  5
6364
330
17
100
AcDbEntity
  8
0
 62
     2
100
AcDbText
 10
21.90687658916451
 20
13.57950052352595
 30
0.0
 40
0.187
  1
PROJECT-OUT JAMB
100
AcDbText
  0
LINE
  5
6365
330
17
100
AcDbEntity
  8
R-SWTS-DET1
100
AcDbLine
 10
23.07045801141237
 20
11.11620270417972
 30
0.0
 11
25.20743276348333
 21
11.11620270417972
 31
0.0
  0
LWPOLYLINE
  5
6366
330
17
100
AcDbEntity
  8
R-SWTS-DET3
100
AcDbPolyline
 90
        4
 70
     0
 43
0.0
 10
25.21480849567867
 20
10.86120270417963
 10
20.38245801141238
 20
10.86120270417962
 10
20.38245801141238
 20
10.61120270417962
 10
25.21480849567867
 20
10.61120270417962
  0
LINE
  5
6367
330
17
100
AcDbEntity
  8
R-SWTS-DET1
100
AcDbLine
 10
25.21480849567867
 20
9.466449811938396
 30
0.0
 11
25.21480849567867
 21
12.130321957742
 31
0.0
  0
LINE
  5
6368
330
17
100
AcDbEntity
  8
R-SWTS-DET1
100
AcDbLine
 10
25.21480849567867
 20
12.130321957742
 30
0.0
 11
25.00255630555578
 21
12.18324237240444
 31
0.0
  0
LINE
  5
6369
330
17
100
AcDbEntity
  8
R-SWTS-DET1
100
AcDbLine
 10
25.42738088339119
 20
12.28916303595483
 30
0.0
 11
25.21480849567867
 21
12.34216328484281
 31
0.0
  0
LINE
  5
636A
330
17
100
AcDbEntity
  8
R-SWTS-DET1
100
AcDbLine
 10
25.00255630555578
 20
12.18324237240444
 30
0.0
 11
25.42738088339119
 21
12.28916303595483
 31
0.0
  0
LWPOLYLINE
  5
636B
330
17
100
AcDbEntity
  8
R-SWTS-DET1
100
AcDbPolyline
 90
        4
 70
     1
 43
0.0
 10
22.44545801141237
 20
11.24120270417972
 10
22.94545801141237
 20
11.24120270417972
 10
22.94545801141238
 20
12.99120270417972
 10
22.44545801141237
 20
12.99120270417972
  0
LWPOLYLINE
  5
636C
330
17
100
AcDbEntity
  8
R-SWTS-DET1
100
AcDbPolyline
 90
       24
 70
     1
 43
0.0
 10
22.32045801141238
 20
12.99120270417972
 10
22.32045801141237
 20
11.24120270417972
 10
22.19545801141237
 20
11.24120270417972
 10
22.19545801141237
 20
11.35120270417973
 42
0.4142135623730951
 10
22.18045801141238
 20
11.36620270417973
 10
22.08545801141239
 20
11.36620270417973
 42
0.4142135623730951
 10
22.07045801141237
 20
11.35120270417973
 10
22.07045801141237
 20
11.11620270417972
 10
22.13245801141238
 20
11.11620270417972
 10
22.13245801141238
 20
11.05420270417972
 10
22.19545801141237
 20
11.05420270417972
 10
22.19545801141237
 20
11.11620270417972
 10
23.07045801141237
 20
11.11620270417972
 10
23.07045801141237
 20
13.11620270417973
 10
22.43045801141237
 20
13.11620270417973
 42
1.0
 10
22.43045801141237
 20
13.08420270417973
 10
22.43645801141239
 20
13.08420270417973
 42
-1.0
 10
22.43645801141239
 20
13.04020270417973
 10
22.26745801141237
 20
13.04020270417973
 42
-1.0
 10
22.26745801141237
 20
13.08420270417973
 10
22.27345801141237
 20
13.08420270417973
 42
1.0
 10
22.27345801141237
 20
13.11620270417973
 10
22.19545801141237
 20
13.11620270417973
 10
22.19545801141237
 20
12.99120270417972
  0
LWPOLYLINE
  5
636D
330
17
100
AcDbEntity
  8
R-SWTS-DET1
100
AcDbPolyline
 90
       30
 70
     1
 43
0.0
 10
21.62245801141238
 20
11.89820270417974
 10
21.63245801141238
 20
11.88820270417973
 10
21.63245801141238
 20
11.16232190505657
 10
21.56945801141238
 20
11.05320270417973
 10
21.31245801141239
 20
11.05320270417973
 42
-0.4142135623731125
 10
21.28245801141239
 20
11.08320270417973
 10
21.28245801141239
 20
11.11620270417973
 10
21.40745801141239
 20
11.11620270417973
 42
0.4142135623731002
 10
21.50745801141238
 20
11.21620270417973
 10
21.50745801141238
 20
11.49120270417973
 10
21.38245801141238
 20
11.49120270417973
 10
21.38245801141238
 20
11.59120270417973
 10
21.50745801141238
 20
11.59120270417973
 10
21.50745801141238
 20
12.39320270417973
 10
21.38245801141238
 20
12.39320270417973
 10
21.38245801141238
 20
12.49320270417973
 10
21.50745801141238
 20
12.49320270417973
 10
21.50745801141238
 20
13.16620270417973
 10
21.38245801141238
 20
13.16620270417973
 10
21.38245801141238
 20
13.29120270417973
 10
22.44545801141239
 20
13.29120270417973
 10
22.44545801141239
 20
13.16620270417973
 10
21.63245801141238
 20
13.16620270417973
 10
21.63245801141238
 20
12.61320270417973
 10
21.62245801141238
 20
12.60320270417973
 10
21.63245801141238
 20
12.59320270417973
 10
21.63245801141238
 20
12.30120270417973
 10
21.62245801141238
 20
12.29120270417973
 10
21.63245801141238
 20
12.28120270417973
 10
21.63245801141238
 20
11.90820270417973
  0
LWPOLYLINE
  5
636E
330
17
100
AcDbEntity
  8
R-SWTS-DET2
100
AcDbPolyline
 90
        4
 70
     1
 43
0.02
 10
22.19545801141238
 20
10.86120270417963
 10
22.50745801141238
 20
10.86120270417963
 10
22.50745801141238
 20
11.11120270417962
 10
22.19545801141238
 20
11.11120270417962
  0
ARC
  5
636F
330
17
100
AcDbEntity
  8
R-SWTS-DET3
100
AcDbCircle
 10
23.28696436235849
 20
10.98620270417962
 30
0.0
 40
0.25
100
AcDbArc
 50
149.9999999999998
 51
210.0000000000003
  0
ARC
  5
6370
330
17
100
AcDbEntity
  8
R-SWTS-DET3
100
AcDbCircle
 10
22.92722214291381
 20
10.98620270417962
 30
0.0
 40
0.25
100
AcDbArc
 50
149.9999999999998
 51
210.0000000000003
  0
ARC
  5
6371
330
17
100
AcDbEntity
  8
R-SWTS-DET3
100
AcDbCircle
 10
22.87050142365477
 20
10.98620270417962
 30
0.0
 40
0.25
100
AcDbArc
 50
149.9999999999998
 51
210.0000000000003
  0
ARC
  5
6372
330
17
100
AcDbEntity
  8
R-SWTS-DET3
100
AcDbCircle
 10
22.81735768669135
 20
10.98620270417962
 30
0.0
 40
0.25
100
AcDbArc
 50
149.9999999999998
 51
210.0000000000003
  0
ARC
  5
6373
330
17
100
AcDbEntity
  8
R-SWTS-DET3
100
AcDbCircle
 10
22.99058582929327
 20
10.98620270417962
 30
0.0
 40
0.25
100
AcDbArc
 50
149.9999999999998
 51
210.0000000000003
  0
ARC
  5
6374
330
17
100
AcDbEntity
  8
R-SWTS-DET3
100
AcDbCircle
 10
23.22717765827464
 20
10.98620270417962
 30
0.0
 40
0.25
100
AcDbArc
 50
149.9999999999998
 51
210.0000000000003
  0
ARC
  5
6375
330
17
100
AcDbEntity
  8
R-SWTS-DET3
100
AcDbCircle
 10
23.10709325263615
 20
10.98620270417962
 30
0.0
 40
0.25
100
AcDbArc
 50
149.9999999999998
 51
210.0000000000003
  0
ARC
  5
6376
330
17
100
AcDbEntity
  8
R-SWTS-DET3
100
AcDbCircle
 10
23.05326077384716
 20
10.98620270417962
 30
0.0
 40
0.25
100
AcDbArc
 50
149.9999999999998
 51
210.0000000000003
  0
ARC
  5
6377
330
17
100
AcDbEntity
  8
R-SWTS-DET3
100
AcDbCircle
 10
23.16381397189518
 20
10.98620270417962
 30
0.0
 40
0.25
100
AcDbArc
 50
149.9999999999998
 51
210.0000000000003
  0
ARC
  5
6378
330
17
100
AcDbEntity
  8
R-SWTS-DET3
100
AcDbCircle
 10
21.82111267843461
 20
11.09312219195773
 30
0.0
 40
0.3699999999999999
100
AcDbArc
 50
321.1848818795447
 51
353.1828420976668
  0
ARC
  5
6379
330
17
100
AcDbEntity
  8
R-SWTS-DET3
100
AcDbCircle
 10
21.82111267843461
 20
11.09312219195773
 30
0.0
 40
0.41
100
AcDbArc
 50
325.5520530332213
 51
335.9285311779053
  0
ARC
  5
637A
330
17
100
AcDbEntity
  8
R-SWTS-DET3
100
AcDbCircle
 10
21.82111267843461
 20
11.09312219195773
 30
0.0
 40
0.25
100
AcDbArc
 50
291.9243045464765
 51
4.147368993676758
  0
ARC
  5
637B
330
17
100
AcDbEntity
  8
R-SWTS-DET3
100
AcDbCircle
 10
21.82111267843461
 20
11.09312219195773
 30
0.0
 40
0.29
100
AcDbArc
 50
306.8964010283309
 51
3.574514999444297
  0
ARC
  5
637C
330
17
100
AcDbEntity
  8
R-SWTS-DET3
100
AcDbCircle
 10
21.82111267843461
 20
11.09312219195773
 30
0.0
 40
0.33
100
AcDbArc
 50
315.3490189502497
 51
352.3518488634123
  0
INSERT
  5
637D
330
17
100
AcDbEntity
  8
R-SWTS-DET3
100
AcDbBlockReference
  2
*X0
 10
8.934378445864439
 20
6.043315363255519
 30
0.0
1001
ACAD
1000
HATCH
1002
{
1070
    16
1000
ANSI31
1040
0.2
1040
0.0
1002
}
  0
LWPOLYLINE
  5
637E
330
17
100
AcDbEntity
  8
R-SWTS-DET2
100
AcDbPolyline
 90
        8
 70
     1
 43
0.0
 10
19.37545801141233
 20
10.95533935575987
 42
0.3966354997270823
 10
19.40364753259682
 20
10.92539403615131
 10
20.06564753259687
 20
10.88536985235446
 42
0.4320128626193695
 10
20.09745801141239
 20
10.91531517196301
 10
20.09745801141239
 20
11.01120270417964
 42
0.4142135623730941
 10
20.06745801141239
 20
11.04120270417964
 10
19.40545801141233
 20
11.04120270417964
 42
0.4142135623730863
 10
19.37545801141233
 20
11.01120270417964
  0
LWPOLYLINE
  5
637F
330
17
100
AcDbEntity
  8
R-SWTS-DET2
100
AcDbPolyline
 90
       41
 70
     1
 43
0.0
 10
20.46045801141237
 20
11.20624704771604
 10
20.41682265899871
 20
11.19455499027535
 42
-0.9999999999999909
 10
20.41009336382604
 20
11.21966906175887
 10
20.49045801141237
 20
11.24120270417964
 10
20.57082265899871
 20
11.21966906175887
 42
-0.9999999999999909
 10
20.56409336382605
 20
11.19455499027535
 10
20.52045801141237
 20
11.20624704771604
 10
20.54045801141239
 20
11.11120270417963
 10
20.83245801141243
 20
11.11120270417963
 10
20.85245801141242
 20
11.20624704771604
 10
20.80882265899875
 20
11.19455499027535
 42
-0.9999999999999909
 10
20.80209336382609
 20
11.21966906175887
 10
20.88245801141242
 20
11.24120270417964
 10
20.96282265899876
 20
11.21966906175887
 42
-0.9999999999999909
 10
20.95609336382608
 20
11.19455499027535
 10
20.91245801141242
 20
11.20624704771604
 10
20.93245801141242
 20
11.11120270417963
 10
20.95945801141242
 20
11.11120270417963
 10
20.95945801141242
 20
10.86120270417965
 10
20.13245801141238
 20
10.81120270417965
 10
19.30545801141234
 20
10.86120270417965
 10
19.30545801141233
 20
11.11120270417963
 10
19.33245801141234
 20
11.11120270417963
 10
19.35245801141234
 20
11.20624704771604
 10
19.30882265899866
 20
11.19455499027535
 42
-0.9999999999999909
 10
19.302093363826
 20
11.21966906175887
 10
19.38245801141234
 20
11.24120270417964
 10
19.46282265899867
 20
11.21966906175887
 42
-0.9999999999999909
 10
19.45609336382601
 20
11.19455499027535
 10
19.41245801141234
 20
11.20624704771604
 10
19.43245801141233
 20
11.11120270417963
 10
19.72445801141238
 20
11.11120270417963
 10
19.74445801141239
 20
11.20624704771604
 10
19.70082265899872
 20
11.19455499027535
 42
-0.9999999999999909
 10
19.69409336382605
 20
11.21966906175887
 10
19.77445801141238
 20
11.24120270417964
 10
19.85482265899871
 20
11.21966906175887
 42
-0.9999999999999909
 10
19.84809336382605
 20
11.19455499027535
 10
19.80445801141238
 20
11.20624704771604
 10
19.82445801141239
 20
11.11120270417963
 10
20.44045801141237
 20
11.11120270417963
  0
LWPOLYLINE
  5
6380
330
17
100
AcDbEntity
  8
R-SWTS-DET2
100
AcDbPolyline
 90
        8
 70
     1
 43
0.0
 10
20.85945801141243
 20
11.04120270417964
 42
-0.4142135623730944
 10
20.88945801141243
 20
11.01120270417964
 10
20.88945801141243
 20
10.95533935575987
 42
-0.3966354997270777
 10
20.86126849022794
 20
10.92539403615131
 10
20.19926849022789
 20
10.88536985235446
 42
-0.4320128626193652
 10
20.16745801141238
 20
10.91531517196301
 10
20.16745801141238
 20
11.01120270417964
 42
-0.4142135623730956
 10
20.19745801141238
 20
11.04120270417964
  0
ARC
  5
6381
330
17
100
AcDbEntity
  8
R-SWTS-DET3
100
AcDbCircle
 10
18.9623301935315
 20
10.98620270417962
 30
0.0
 40
0.25
100
AcDbArc
 50
329.9999999999997
 51
30.00000000000015
  0
ARC
  5
6382
330
17
100
AcDbEntity
  8
R-SWTS-DET3
100
AcDbCircle
 10
19.02569387991096
 20
10.98620270417962
 30
0.0
 40
0.25
100
AcDbArc
 50
329.9999999999997
 51
30.00000000000015
  0
ARC
  5
6383
330
17
100
AcDbEntity
  8
R-SWTS-DET3
100
AcDbCircle
 10
18.66595166046628
 20
10.98620270417962
 30
0.0
 40
0.25
100
AcDbArc
 50
329.9999999999997
 51
30.00000000000015
  0
ARC
  5
6384
330
17
100
AcDbEntity
  8
R-SWTS-DET3
100
AcDbCircle
 10
18.78910205092958
 20
10.98620270417962
 30
0.0
 40
0.25
100
AcDbArc
 50
329.9999999999997
 51
30.00000000000015
  0
ARC
  5
6385
330
17
100
AcDbEntity
  8
R-SWTS-DET3
100
AcDbCircle
 10
18.89965524897761
 20
10.98620270417962
 30
0.0
 40
0.25
100
AcDbArc
 50
329.9999999999997
 51
30.00000000000015
  0
ARC
  5
6386
330
17
100
AcDbEntity
  8
R-SWTS-DET3
100
AcDbCircle
 10
18.84582277018862
 20
10.98620270417962
 30
0.0
 40
0.25
100
AcDbArc
 50
329.9999999999997
 51
30.00000000000015
  0
ARC
  5
6387
330
17
100
AcDbEntity
  8
R-SWTS-DET3
100
AcDbCircle
 10
18.72573836455012
 20
10.98620270417962
 30
0.0
 40
0.25
100
AcDbArc
 50
329.9999999999997
 51
30.00000000000015
  0
LINE
  5
6388
330
17
100
AcDbEntity
  8
R-SWTS-DET2
100
AcDbLine
 10
21.63245801141238
 20
12.70620270417964
 30
0.0
 11
21.02545761141238
 21
12.70620270417964
 31
0.0
  0
LINE
  5
6389
330
17
100
AcDbEntity
  8
R-SWTS-DET2
100
AcDbLine
 10
21.63245801141238
 20
12.49020270417964
 30
0.0
 11
21.02545671141239
 21
12.49020270417964
 31
0.0
  0
LINE
  5
638A
330
17
100
AcDbEntity
  8
R-SWTS-DET2
100
AcDbLine
 10
22.26380966723929
 20
13.16195561418335
 30
0.0
 11
22.44010635558549
 21
13.16195561418335
 31
0.0
  0
ARC
  5
638B
330
17
100
AcDbEntity
  8
R-SWTS-DET2
100
AcDbCircle
 10
22.44010635558549
 20
13.13945561418337
 30
0.0
 40
0.0224999999999795
100
AcDbArc
 50
270.0
 51
90.0
  0
ARC
  5
638C
330
17
100
AcDbEntity
  8
R-SWTS-DET2
100
AcDbCircle
 10
21.44665941141238
 20
12.59820270417964
 30
0.0
 40
0.3367977
100
AcDbArc
 50
323.0332000000001
 51
36.9666999999999
  0
ARC
  5
638D
330
17
100
AcDbEntity
  8
R-SWTS-DET2
100
AcDbCircle
 10
22.26380966723929
 20
13.13945561418337
 30
0.0
 40
0.0224999999999795
100
AcDbArc
 50
90.0
 51
270.0
  0
LINE
  5
638E
330
17
100
AcDbEntity
  8
R-SWTS-DET2
100
AcDbLine
 10
21.63245801141238
 20
12.81070270417964
 30
0.0
 11
21.63245801141238
 21
12.38570270417964
 31
0.0
  0
LINE
  5
638F
330
17
100
AcDbEntity
  8
R-SWTS-DET2
100
AcDbLine
 10
21.69578103141238
 20
12.38570270417964
 30
0.0
 11
21.63245801141238
 21
12.38570270417964
 31
0.0
  0
ARC
  5
6390
330
17
100
AcDbEntity
  8
R-SWTS-DET2
100
AcDbCircle
 10
21.69578103141238
 20
12.41070280417964
 30
0.0
 40
0.02500004
100
AcDbArc
 50
270.0
 51
323.0329999999999
  0
LINE
  5
6391
330
17
100
AcDbEntity
  8
R-SWTS-DET2
100
AcDbLine
 10
21.69578103141238
 20
12.81070270417964
 30
0.0
 11
21.63245801141238
 21
12.81070270417964
 31
0.0
  0
ARC
  5
6392
330
17
100
AcDbEntity
  8
R-SWTS-DET2
100
AcDbCircle
 10
21.69578103141238
 20
12.78570260417964
 30
0.0
 40
0.02500004
100
AcDbArc
 50
36.9670000000002
 51
90.00020000000057
  0
LINE
  5
6393
330
17
100
AcDbEntity
  8
R-SWTS-DET2
100
AcDbLine
 10
21.02545591141238
 20
12.70620230417964
 30
0.0
 11
20.88245441141238
 21
12.67420208417964
 31
0.0
  0
LINE
  5
6394
330
17
100
AcDbEntity
  8
R-SWTS-DET2
100
AcDbLine
 10
21.02545591141238
 20
12.49020310417964
 30
0.0
 11
20.88245441141238
 21
12.52220332417964
 31
0.0
  0
LINE
  5
6395
330
17
100
AcDbEntity
  8
R-SWTS-DET2
100
AcDbLine
 10
20.88245801141238
 20
12.67420262417964
 30
0.0
 11
20.88245801141238
 21
12.52220278417964
 31
0.0
  0
LINE
  5
6396
330
17
100
AcDbEntity
  8
R-SWTS-DET1
100
AcDbLine
 10
21.38245801141238
 20
16.36120270417966
 30
0.0
 11
25.21480849567864
 21
16.36120270417966
 31
0.0
  0
TEXT
  5
6397
330
17
100
AcDbEntity
  8
R-ANNO-DIMS
  6
ByBlock
100
AcDbText
 10
17.52340275902591
 20
7.986202704179621
 30
0.0
 40
0.25
  1
DLO
 72
     1
 11
17.88245801141336
 21
8.111202704179621
 31
0.0
100
AcDbText
 73
     2
  0
SOLID
  5
6398
330
17
100
AcDbEntity
  8
R-ANNO-DIMS
  6
ByBlock
100
AcDbTrace
 10
17.0699580114137
 20
7.892452704179621
 30
0.0
 11
17.0699580114137
 21
7.829952704179621
 31
0.0
 12
16.8824580114137
 22
7.861202704179621
 32
0.0
 13
16.8824580114137
 23
7.861202704179621
 33
0.0
  0
LWPOLYLINE
  5
6399
330
17
100
AcDbEntity
  8
R-SWTS-DET1
  6
Continuous
100
AcDbPolyline
 90
        6
 70
     0
 43
0.0
 10
16.88245801141238
 20
9.362293671167243
 10
16.88245801141238
 20
12.14245270417962
 10
17.09471020153525
 20
12.19537311884205
 10
16.66988562369984
 20
12.30129378239245
 10
16.88213781382271
 20
12.35421419705488
 10
16.88213781382271
 20
16.71398770135526
  0
LWPOLYLINE
  5
639D
330
17
100
AcDbEntity
  8
R-SWTS-DET1
100
AcDbPolyline
 90
       31
 70
     1
 43
0.0
 10
24.96799036094712
 20
34.87664776410851
 10
24.96799036094712
 20
34.8706477641085
 42
-1.0
 10
24.92399036094712
 20
34.8706477641085
 10
24.92399036094712
 20
35.0396477641085
 42
-1.0
 10
24.96799036094712
 20
35.0396477641085
 10
24.96799036094712
 20
35.0336477641085
 42
1.0
 10
24.99999036094712
 20
35.0336477641085
 10
24.99999036094712
 20
35.11164776410851
 10
24.87499036094712
 20
35.11164776410851
 10
24.87499036094712
 20
34.9866477641085
 10
23.12499036094712
 20
34.9866477641085
 10
23.12499036094712
 20
35.2366477641085
 42
0.2353990497064308
 10
23.07524360460274
 20
35.33645732937812
 10
22.90945413091851
 20
35.46145732937806
 42
0.1629281275537786
 10
22.83420088726289
 20
35.48664776410845
 10
22.51499036094712
 20
35.48664776410845
 42
0.7673269879789578
 10
22.50749036094712
 20
35.45865738305168
 10
22.56299036094712
 20
35.42661444311177
 10
22.56299036094712
 20
35.33064776410852
 10
22.59399036094712
 20
35.33064776410852
 10
22.59399036094712
 20
35.36164776410845
 10
22.87399036094712
 20
35.36164776410845
 10
22.87399036094712
 20
35.33164776410845
 10
22.99999036094712
 20
35.2366477641085
 10
22.99999036094712
 20
35.1746477641085
 10
22.93799036094712
 20
35.1746477641085
 10
22.93799036094712
 20
35.11164776410851
 10
22.99999036094712
 20
35.11164776410851
 10
22.99999036094712
 20
34.23664776410851
 10
24.99999036094712
 20
34.23664776410851
 10
24.99999036094712
 20
34.87664776410851
 42
1.0
  0
LWPOLYLINE
  5
639E
330
17
100
AcDbEntity
  8
R-SWTS-DET1
100
AcDbPolyline
 90
        4
 70
     1
 43
0.0
 10
24.87499036094712
 20
34.86164776410851
 10
23.12499036094712
 20
34.86164776410851
 10
23.12499036094712
 20
34.3616477641085
 10
24.87499036094713
 20
34.3616477641085
  0
LWPOLYLINE
  5
639F
330
17
100
AcDbEntity
  8
R-SWTS-DET1
100
AcDbPolyline
 90
       31
 70
     1
 43
0.0
 10
24.96183232615444
 20
27.48369062878767
 10
24.96183232615444
 20
27.48969062878767
 42
1.0
 10
24.91783232615443
 20
27.48969062878767
 10
24.91783232615443
 20
27.32069062878768
 42
1.0
 10
24.96183232615444
 20
27.32069062878768
 10
24.96183232615444
 20
27.32669062878767
 42
-1.0
 10
24.99383232615443
 20
27.32669062878767
 10
24.99383232615443
 20
27.24869062878767
 10
24.86883232615443
 20
27.24869062878767
 10
24.86883232615443
 20
27.37369062878768
 10
23.11883232615443
 20
27.37369062878767
 10
23.11883232615443
 20
27.12369062878767
 42
-0.2353990497064308
 10
23.06908556981005
 20
27.02388106351806
 10
22.90329609612582
 20
26.89888106351812
 42
-0.1629281275537786
 10
22.8280428524702
 20
26.87369062878773
 10
22.50883232615443
 20
26.87369062878773
 42
-0.7673269879789578
 10
22.50133232615443
 20
26.9016810098445
 10
22.55683232615443
 20
26.93372394978441
 10
22.55683232615443
 20
27.02969062878767
 10
22.58783232615443
 20
27.02969062878767
 10
22.58783232615443
 20
26.99869062878773
 10
22.86783232615443
 20
26.99869062878773
 10
22.86783232615443
 20
27.02869062878773
 10
22.99383232615443
 20
27.12369062878767
 10
22.99383232615443
 20
27.18569062878767
 10
22.93183232615443
 20
27.18569062878767
 10
22.93183232615443
 20
27.24869062878767
 10
22.99383232615443
 20
27.24869062878767
 10
22.99383232615443
 20
28.12369062878767
 10
24.99383232615443
 20
28.12369062878767
 10
24.99383232615443
 20
27.48369062878767
 42
-1.0
  0
LWPOLYLINE
  5
63A0
330
17
100
AcDbEntity
  8
R-SWTS-DET1
100
AcDbPolyline
 90
        4
 70
     1
 43
0.0
 10
24.86883232615443
 20
27.49869062878767
 10
23.11883232615443
 20
27.49869062878767
 10
23.11883232615443
 20
27.99869062878767
 10
24.86883232615443
 20
27.99869062878768
  0
LWPOLYLINE
  5
63F7
330
17
100
AcDbEntity
  8
R-SWTS-DET2
100
AcDbPolyline
 90
        4
 70
     1
 43
0.0
 10
22.63633232615436
 20
35.8645573420589
 42
-1.0
 10
22.67233232615436
 20
35.8645573420589
 10
22.67233232615436
 20
35.8165573420589
 42
-1.0
 10
22.63633232615436
 20
35.8165573420589
  0
LWPOLYLINE
  5
63F8
330
17
100
AcDbEntity
  8
R-SWTS-DET2
100
AcDbPolyline
 90
       19
 70
     1
 43
0.0
 10
22.7315382085073
 20
35.88738087147067
 42
-0.7807764064043922
 10
22.72683232615436
 20
35.86855734205891
 10
22.71683232615436
 20
35.8685573420589
 10
22.71683232615436
 20
35.7985573420589
 10
22.77333232615436
 20
35.79855734205891
 42
-0.4142135623731242
 10
22.73333232615437
 20
35.75855734205891
 10
22.71033232615436
 20
35.7585573420589
 42
0.3976588195991941
 10
22.68537271482597
 20
35.73497783575316
 10
22.66930809295141
 20
35.49970504584237
 42
-0.9447064698048286
 10
22.63935655935732
 20
35.49970504584237
 10
22.62329193748276
 20
35.73497783575316
 42
0.3976588195991942
 10
22.59833232615436
 20
35.7585573420589
 10
22.57533232615435
 20
35.75855734205891
 42
-0.4142135623731244
 10
22.53533232615436
 20
35.79855734205891
 10
22.59183232615436
 20
35.7985573420589
 10
22.59183232615436
 20
35.8685573420589
 10
22.58183232615437
 20
35.86855734205891
 42
-0.7807764064043922
 10
22.57712644380142
 20
35.88738087147067
 10
22.65433232615436
 20
35.9285573420589
  0
MTEXT
  5
6B11
102
{ACAD_XDICTIONARY
360
6B12
102
}
330
17
100
AcDbEntity
  8
TEXT
100
AcDbMText
 10
1.000000084398437
 20
2.0
 30
0.0
 40
0.375
 41
15.4571868900598
 71
     1
 72
     5
  1
ENGINEERING CHANGE:  97910-095 (MARCH 2017)\PFILE NAME:  KCDE072 SHEET 03 OF 05.DWG
 73
     1
 44
1.0
1001
ACAD
1000
ACAD_MTEXT_COLUMN_INFO_BEGIN
1070
    75
1070
     2
1070
    79
1070
     0
1070
    76
1070
     1
1070
    78
1070
     0
1070
    48
1040
15.4571868900598
1070
    49
1040
1.25
1070
    50
1070
     1
1040
0.0
1000
ACAD_MTEXT_COLUMN_INFO_END
1000
MTEXTBEGIN
1070
    73
1070
     1
1070
    44
1040
1.0
1070
    74
1070
     0
1000
MTEXTEND
  0
INSERT
  5
6B13
330
17
100
AcDbEntity
  8
0
100
AcDbBlockReference
  2
Kawneer Logo English
 10
1.0
 20
2.5
 30
0.0
 41
5.337
 42
5.337
 43
5.337
  0
ENDSEC
  0
SECTION
  2
OBJECTS
  0
DICTIONARY
  5
C
330
0
100
AcDbDictionary
281
     1
  3
ACAD_CIP_PREVIOUS_PRODUCT_INFO
350
64EE
  3
ACAD_COLOR
350
6454
  3
ACAD_FIELDLIST
350
6512
  3
ACAD_GROUP
350
D
  3
ACAD_LAYOUT
350
55E0
  3
ACAD_MATERIAL
350
6422
  3
ACAD_MLEADERSTYLE
350
6469
  3
ACAD_MLINESTYLE
350
1A
  3
ACAD_PLOTSETTINGS
350
55E1
  3
ACAD_PLOTSTYLENAME
350
55DE
  3
ACAD_SCALELIST
350
6457
  3
ACAD_TABLESTYLE
350
6455
  3
ACAD_VISUALSTYLE
350
643B
  3
ACDB_RECOMPOSE_DATA
350
6B2D
  3
ACDBVARIABLEDICTIONARY
350
3E
  3
DWGPROPS
350
6B2E
  0
DICTIONARY
  5
64A9
330
8
100
AcDbDictionary
280
     1
281
     1
  0
DICTIONARY
  5
6488
330
2
100
AcDbDictionary
280
     1
281
     1
  3
ACAD_LAYERSTATES
360
6489
  0
DICTIONARY
  5
6498
330
E
100
AcDbDictionary
280
     1
281
     1
  3
ADSK_XREC_LAYER_RECONCILED
360
6499
  0
DICTIONARY
  5
649A
330
276
100
AcDbDictionary
280
     1
281
     1
  3
ADSK_XREC_LAYER_RECONCILED
360
649B
  0
DICTIONARY
  5
649C
330
34CC
100
AcDbDictionary
280
     1
281
     1
  3
ADSK_XREC_LAYER_RECONCILED
360
649D
  0
DICTIONARY
  5
649E
330
34CD
100
AcDbDictionary
280
     1
281
     1
  3
ADSK_XREC_LAYER_RECONCILED
360
649F
  0
DICTIONARY
  5
64A0
330
34CE
100
AcDbDictionary
280
     1
281
     1
  3
ADSK_XREC_LAYER_RECONCILED
360
64A1
  0
DICTIONARY
  5
64A2
330
34CF
100
AcDbDictionary
280
     1
281
     1
  3
ADSK_XREC_LAYER_RECONCILED
360
64A3
  0
DICTIONARY
  5
6503
330
6502
100
AcDbDictionary
280
     1
281
     1
  0
DICTIONARY
  5
579A
330
17
100
AcDbDictionary
280
     1
281
     1
  3
ACAD_LAYOUTSELFREF
360
641E
  0
DICTIONARY
  5
5798
330
14
100
AcDbDictionary
280
     1
281
     1
  3
ACAD_LAYOUTSELFREF
360
641D
  0
DICTIONARY
  5
6A58
330
6A4E
100
AcDbDictionary
280
     1
281
     1
  3
ACAD_SORTENTS
360
6A59
  0
DICTIONARY
  5
6B2B
330
6A4F
100
AcDbDictionary
280
     1
281
     1
  3
ACAD_MTEXT_2008_RT
360
6B2C
  0
DICTIONARY
  5
6B26
330
2E0C
100
AcDbDictionary
280
     1
281
     1
  3
ACAD_MTEXT_2008_RT
360
6B27
  0
DICTIONARY
  5
6B12
330
6B11
100
AcDbDictionary
280
     1
281
     1
  0
XRECORD
  5
64EE
102
{ACAD_REACTORS
330
C
102
}
330
C
100
AcDbXrecord
280
     1
300
ACD
300
2012
300
85730ACD_2012_0F
  0
DICTIONARY
  5
6454
102
{ACAD_REACTORS
330
C
102
}
330
C
100
AcDbDictionary
281
     1
  0
FIELDLIST
  5
6512
102
{ACAD_REACTORS
330
C
102
}
330
C
100
AcDbIdSet
 90
        0
100
AcDbFieldList
  0
DICTIONARY
  5
D
102
{ACAD_REACTORS
330
C
102
}
330
C
100
AcDbDictionary
281
     1
  0
DICTIONARY
  5
55E0
102
{ACAD_REACTORS
330
C
102
}
330
C
100
AcDbDictionary
281
     1
  3
Layout1
350
55E3
  3
Model
350
55E2
  0
DICTIONARY
  5
6422
102
{ACAD_REACTORS
330
C
102
}
330
C
100
AcDbDictionary
281
     1
  3
ByBlock
350
642B
  3
ByLayer
350
6423
  3
Global
350
6433
  0
DICTIONARY
  5
6469
102
{ACAD_REACTORS
330
C
102
}
330
C
100
AcDbDictionary
281
     1
  3
Standard
350
646A
  0
DICTIONARY
  5
1A
102
{ACAD_REACTORS
330
C
102
}
330
C
100
AcDbDictionary
281
     1
  3
STANDARD
350
1B
  0
DICTIONARY
  5
55E1
102
{ACAD_REACTORS
330
C
102
}
330
C
100
AcDbDictionary
281
     1
  0
ACDBDICTIONARYWDFLT
  5
55DE
102
{ACAD_REACTORS
330
C
102
}
330
C
100
AcDbDictionary
281
     1
  3
Normal
350
55DF
100
AcDbDictionaryWithDefault
340
55DF
  0
DICTIONARY
  5
6457
102
{ACAD_REACTORS
330
C
102
}
330
C
100
AcDbDictionary
281
     1
  3
A0
350
6458
  3
A1
350
6B15
  3
A2
350
6B16
  3
A3
350
6B17
  3
A4
350
6B18
  3
A5
350
6B19
  3
A6
350
6B1A
  3
A7
350
6B1B
  3
A8
350
6B1C
  3
A9
350
6B1D
  3
B0
350
6B1E
  3
B1
350
6B1F
  3
B2
350
6B20
  3
B3
350
6B21
  3
B4
350
6B22
  3
B5
350
6B23
  3
B6
350
6B24
  0
DICTIONARY
  5
6455
102
{ACAD_REACTORS
330
C
102
}
330
C
100
AcDbDictionary
281
     1
  3
Standard
350
6456
  0
DICTIONARY
  5
643B
102
{ACAD_REACTORS
330
C
102
}
330
C
100
AcDbDictionary
281
     1
  3
2dWireframe
350
6441
  3
3D Hidden
350
6A4C
  3
3dWireframe
350
6A4D
  3
Basic
350
6440
  3
Brighten
350
6447
  3
ColorChange
350
644B
  3
Conceptual
350
6444
  3
Dim
350
6446
  3
EdgeColorOff
350
6453
  3
Facepattern
350
644A
  3
Flat
350
643C
  3
FlatWithEdges
350
643D
  3
Gouraud
350
643E
  3
GouraudWithEdges
350
643F
  3
Hidden
350
6443
  3
JitterOff
350
6451
  3
Linepattern
350
6449
  3
OverhangOff
350
6452
  3
Realistic
350
6445
  3
Shaded
350
6450
  3
Shaded with edges
350
644F
  3
Shades of Gray
350
644C
  3
Sketchy
350
644D
  3
Thicken
350
6448
  3
Wireframe
350
6442
  3
X-Ray
350
644E
  0
XRECORD
  5
6B2D
102
{ACAD_REACTORS
330
C
102
}
330
C
100
AcDbXrecord
280
     1
 90
        1
330
2E0C
330
6456
330
6A4F
330
6B11
  0
DICTIONARY
  5
3E
102
{ACAD_REACTORS
330
C
102
}
330
C
100
AcDbDictionary
281
     1
  3
CANNOSCALE
350
64E6
  3
CMLEADERSTYLE
350
64E5
  3
CTABLESTYLE
350
64E4
  3
DIMADEC
350
3F
  3
DIMASSOC
350
64E9
  3
INDEXCTL
350
64E8
  3
LAYEREVAL
350
69D9
  3
LAYERNOTIFY
350
69DA
  3
LIGHTINGUNITS
350
69D8
  3
MSLTSCALE
350
69D7
  3
SORTENTS
350
64E7
  3
XCLIPFRAME
350
6B25
  0
XRECORD
  5
6B2E
102
{ACAD_REACTORS
330
C
102
}
330
C
100
AcDbXrecord
280
     1
  1
DWGPROPS COOKIE
  2

  3

  4

  6

  7

  8
cottrmr
  9

300
=
301
=
302
=
303
=
304
=
305
=
306
=
307
=
308
=
309
=
 40
0.4591533449074074
 41
2450777.579237616
 42
2457828.326673808
  1

 90
        0
  0
DICTIONARY
  5
6489
102
{ACAD_REACTORS
330
6488
102
}
330
6488
100
AcDbDictionary
281
     1
  0
XRECORD
  5
6499
102
{ACAD_REACTORS
330
6498
102
}
330
6498
100
AcDbXrecord
280
     1
290
     1
  0
XRECORD
  5
649B
102
{ACAD_REACTORS
330
649A
102
}
330
649A
100
AcDbXrecord
280
     1
290
     1
  0
XRECORD
  5
649D
102
{ACAD_REACTORS
330
649C
102
}
330
649C
100
AcDbXrecord
280
     1
290
     1
  0
XRECORD
  5
649F
102
{ACAD_REACTORS
330
649E
102
}
330
649E
100
AcDbXrecord
280
     1
290
     1
  0
XRECORD
  5
64A1
102
{ACAD_REACTORS
330
64A0
102
}
330
64A0
100
AcDbXrecord
280
     1
290
     1
  0
XRECORD
  5
64A3
102
{ACAD_REACTORS
330
64A2
102
}
330
64A2
100
AcDbXrecord
280
     1
290
     1
  0
XRECORD
  5
641E
102
{ACAD_REACTORS
330
579A
102
}
330
579A
100
AcDbXrecord
280
     1
340
17
  0
XRECORD
  5
641D
102
{ACAD_REACTORS
330
5798
102
}
330
5798
100
AcDbXrecord
280
     1
340
14
  0
SORTENTSTABLE
  5
6A59
102
{ACAD_REACTORS
330
6A58
102
}
330
6A58
100
AcDbSortentsTable
330
6A4E
  0
XRECORD
  5
6B2C
102
{ACAD_REACTORS
330
6B2B
102
}
330
6B2B
100
AcDbXrecord
280
     1
 40
102645.0
  1
\pxqr;{\fArial TUR|b0|i0|c0|p34;\T1.05;AN ARCONIC COMPANY}
  0
XRECORD
  5
6B27
102
{ACAD_REACTORS
330
6B26
102
}
330
6B26
100
AcDbXrecord
280
     1
 40
1322038.0
  1
1600 WALL SYSTEM™2 CURTAIN WALL\P6-3/4" DEEP (1/4" INFILL)\P\pxsm1.0792;SSG WITH GLASSvent™ WINDOWS FOR CURTAIN WALL{\C256; }DETAILS
  0
LAYOUT
  5
55E3
102
{ACAD_XDICTIONARY
360
6B31
102
}
102
{ACAD_REACTORS
330
55E0
102
}
330
55E0
100
AcDbPlotSettings
  1

  2
HP LaserJet 5Si/5Si MX PS
  4

  6

 40
0.0
 41
0.0
 42
0.0
 43
0.0
 44
0.0
 45
0.0
 46
0.0
 47
0.0
 48
0.0
 49
0.0
140
0.0
141
0.0
142
1.0
143
1.0
 70
   688
 72
     0
 73
     0
 74
     5
  7
Default R14 pen assignments.ctb
 75
    16
147
1.0
148
0.0
149
0.0
100
AcDbLayout
  1
Layout1
 70
     1
 71
     1
 10
0.0
 20
0.0
 11
12.0
 21
9.0
 12
0.0
 22
0.0
 32
0.0
 14
1.000000000000000E+20
 24
1.000000000000000E+20
 34
1.000000000000000E+20
 15
-1.000000000000000E+20
 25
-1.000000000000000E+20
 35
-1.000000000000000E+20
146
0.0
 13
0.0
 23
0.0
 33
0.0
 16
1.0
 26
0.0
 36
0.0
 17
0.0
 27
1.0
 37
0.0
 76
     0
330
14
  0
LAYOUT
  5
55E2
102
{ACAD_XDICTIONARY
360
6B2F
102
}
102
{ACAD_REACTORS
330
55E0
102
}
330
55E0
100
AcDbPlotSettings
  1

  2
\\NOAKCI-SRV7\Marketing Communications - HP 9000n
  4
User132
  6

 40
4.233333110809326
 41
4.233341693878173
 42
4.23333740234375
 43
4.23333740234375
 44
279.3999938964844
 45
431.7999877929687
 46
0.0
 47
0.0
 48
0.0
 49
0.0
140
0.0
141
0.0
142
1.0
143
3.89865652381456
 70
 11952
 72
     0
 73
     1
 74
     1
  7
Default R14 pen assignments.ctb
 75
     0
147
0.2564986153285364
148
0.0251651358085496
149
0.0157388334430664
100
AcDbLayout
  1
Model
 70
     1
 71
     0
 10
0.0
 20
0.0
 11
12.0
 21
9.0
 12
0.0
 22
0.0
 32
0.0
 14
0.0
 24
0.0
 34
0.0
 15
0.0
 25
0.0
 35
0.0
146
0.0
 13
0.0
 23
0.0
 33
0.0
 16
1.0
 26
0.0
 36
0.0
 17
0.0
 27
1.0
 37
0.0
 76
     0
330
17
331
63F9
  0
MATERIAL
  5
642B
102
{ACAD_XDICTIONARY
360
642C
102
}
102
{ACAD_REACTORS
330
6422
102
}
330
6422
100
AcDbMaterial
  1
ByBlock
 72
     0
 43
0.0208333333333333
 43
0.0
 43
0.0
 43
0.0
 43
0.0
 43
0.0208333333333333
 43
0.0
 43
0.0
 43
0.0
 43
0.0
 43
1.0
 43
0.0
 43
0.0
 43
0.0
 43
0.0
 43
1.0
 77
     0
 47
0.0208333333333333
 47
0.0
 47
0.0
 47
0.0
 47
0.0
 47
0.0208333333333333
 47
0.0
 47
0.0
 47
0.0
 47
0.0
 47
1.0
 47
0.0
 47
0.0
 47
0.0
 47
0.0
 47
1.0
171
     0
 49
0.0208333333333333
 49
0.0
 49
0.0
 49
0.0
 49
0.0
 49
0.0208333333333333
 49
0.0
 49
0.0
 49
0.0
 49
0.0
 49
1.0
 49
0.0
 49
0.0
 49
0.0
 49
0.0
 49
1.0
175
     0
142
0.0208333333333333
142
0.0
142
0.0
142
0.0
142
0.0
142
0.0208333333333333
142
0.0
142
0.0
142
0.0
142
0.0
142
1.0
142
0.0
142
0.0
142
0.0
142
0.0
142
1.0
179
     0
144
0.0208333333333333
144
0.0
144
0.0
144
0.0
144
0.0
144
0.0208333333333333
144
0.0
144
0.0
144
0.0
144
0.0
144
1.0
144
0.0
144
0.0
144
0.0
144
0.0
144
1.0
147
0.0208333333333333
147
0.0
147
0.0
147
0.0
147
0.0
147
0.0208333333333333
147
0.0
147
0.0
147
0.0
147
0.0
147
1.0
147
0.0
147
0.0
147
0.0
147
0.0
147
1.0
  0
MATERIAL
  5
6423
102
{ACAD_XDICTIONARY
360
6424
102
}
102
{ACAD_REACTORS
330
6422
102
}
330
6422
100
AcDbMaterial
  1
ByLayer
 72
     0
 43
0.0208333333333333
 43
0.0
 43
0.0
 43
0.0
 43
0.0
 43
0.0208333333333333
 43
0.0
 43
0.0
 43
0.0
 43
0.0
 43
1.0
 43
0.0
 43
0.0
 43
0.0
 43
0.0
 43
1.0
 77
     0
 47
0.0208333333333333
 47
0.0
 47
0.0
 47
0.0
 47
0.0
 47
0.0208333333333333
 47
0.0
 47
0.0
 47
0.0
 47
0.0
 47
1.0
 47
0.0
 47
0.0
 47
0.0
 47
0.0
 47
1.0
171
     0
 49
0.0208333333333333
 49
0.0
 49
0.0
 49
0.0
 49
0.0
 49
0.0208333333333333
 49
0.0
 49
0.0
 49
0.0
 49
0.0
 49
1.0
 49
0.0
 49
0.0
 49
0.0
 49
0.0
 49
1.0
175
     0
142
0.0208333333333333
142
0.0
142
0.0
142
0.0
142
0.0
142
0.0208333333333333
142
0.0
142
0.0
142
0.0
142
0.0
142
1.0
142
0.0
142
0.0
142
0.0
142
0.0
142
1.0
179
     0
144
0.0208333333333333
144
0.0
144
0.0
144
0.0
144
0.0
144
0.0208333333333333
144
0.0
144
0.0
144
0.0
144
0.0
144
1.0
144
0.0
144
0.0
144
0.0
144
0.0
144
1.0
147
0.0208333333333333
147
0.0
147
0.0
147
0.0
147
0.0
147
0.0208333333333333
147
0.0
147
0.0
147
0.0
147
0.0
147
1.0
147
0.0
147
0.0
147
0.0
147
0.0
147
1.0
  0
MATERIAL
  5
6433
102
{ACAD_XDICTIONARY
360
6434
102
}
102
{ACAD_REACTORS
330
6422
102
}
330
6422
100
AcDbMaterial
  1
Global
 72
     0
 43
0.0208333333333333
 43
0.0
 43
0.0
 43
0.0
 43
0.0
 43
0.0208333333333333
 43
0.0
 43
0.0
 43
0.0
 43
0.0
 43
1.0
 43
0.0
 43
0.0
 43
0.0
 43
0.0
 43
1.0
 77
     0
 47
0.0208333333333333
 47
0.0
 47
0.0
 47
0.0
 47
0.0
 47
0.0208333333333333
 47
0.0
 47
0.0
 47
0.0
 47
0.0
 47
1.0
 47
0.0
 47
0.0
 47
0.0
 47
0.0
 47
1.0
171
     0
 49
0.0208333333333333
 49
0.0
 49
0.0
 49
0.0
 49
0.0
 49
0.0208333333333333
 49
0.0
 49
0.0
 49
0.0
 49
0.0
 49
1.0
 49
0.0
 49
0.0
 49
0.0
 49
0.0
 49
1.0
175
     0
142
0.0208333333333333
142
0.0
142
0.0
142
0.0
142
0.0
142
0.0208333333333333
142
0.0
142
0.0
142
0.0
142
0.0
142
1.0
142
0.0
142
0.0
142
0.0
142
0.0
142
1.0
179
     0
144
0.0208333333333333
144
0.0
144
0.0
144
0.0
144
0.0
144
0.0208333333333333
144
0.0
144
0.0
144
0.0
144
0.0
144
1.0
144
0.0
144
0.0
144
0.0
144
0.0
144
1.0
147
0.0208333333333333
147
0.0
147
0.0
147
0.0
147
0.0
147
0.0208333333333333
147
0.0
147
0.0
147
0.0
147
0.0
147
1.0
147
0.0
147
0.0
147
0.0
147
0.0
147
1.0
  0
MLEADERSTYLE
  5
646A
102
{ACAD_XDICTIONARY
360
6B29
102
}
102
{ACAD_REACTORS
330
6469
102
}
330
6469
100
AcDbMLeaderStyle
170
     2
171
     1
172
     0
 90
        2
 40
0.0
 41
0.0
173
     1
 91
-1056964608
340
11
 92
       -2
290
     1
 42
0.09
291
     1
 43
0.36
  3
Standard
 44
0.18
300

342
F
174
     1
178
     6
175
     1
176
     0
 93
-1056964608
 45
0.18
292
     0
297
     0
 46
0.18
 94
-1056964608
 47
1.0
 49
1.0
140
1.0
293
     1
141
0.0
294
     1
177
     0
142
1.0
295
     0
296
     0
143
0.125
1001
ACAD_MLEADERVER
1070
     2
  0
MLINESTYLE
  5
1B
102
{ACAD_REACTORS
330
1A
102
}
330
1A
100
AcDbMlineStyle
  2
STANDARD
 70
     0
  3

 62
   256
 51
90.0
 52
90.0
 71
     2
 49
0.5
 62
   256
  6
BYLAYER
 49
-0.5
 62
   256
  6
BYLAYER
  0
ACDBPLACEHOLDER
  5
55DF
102
{ACAD_REACTORS
330
55DE
102
}
330
55DE
  0
SCALE
  5
6458
102
{ACAD_REACTORS
330
6457
102
}
330
6457
100
AcDbScale
 70
     0
300
1:1
140
1.0
141
1.0
290
     1
  0
SCALE
  5
6B15
102
{ACAD_REACTORS
330
6457
102
}
330
6457
100
AcDbScale
 70
     0
300
1/128" = 1'-0"
140
0.0078125
141
12.0
290
     0
  0
SCALE
  5
6B16
102
{ACAD_REACTORS
330
6457
102
}
330
6457
100
AcDbScale
 70
     0
300
1/64" = 1'-0"
140
0.015625
141
12.0
290
     0
  0
SCALE
  5
6B17
102
{ACAD_REACTORS
330
6457
102
}
330
6457
100
AcDbScale
 70
     0
300
1/32" = 1'-0"
140
0.03125
141
12.0
290
     0
  0
SCALE
  5
6B18
102
{ACAD_REACTORS
330
6457
102
}
330
6457
100
AcDbScale
 70
     0
300
1/16" = 1'-0"
140
0.0625
141
12.0
290
     0
  0
SCALE
  5
6B19
102
{ACAD_REACTORS
330
6457
102
}
330
6457
100
AcDbScale
 70
     0
300
3/32" = 1'-0"
140
0.09375
141
12.0
290
     0
  0
SCALE
  5
6B1A
102
{ACAD_REACTORS
330
6457
102
}
330
6457
100
AcDbScale
 70
     0
300
1/8" = 1'-0"
140
0.125
141
12.0
290
     0
  0
SCALE
  5
6B1B
102
{ACAD_REACTORS
330
6457
102
}
330
6457
100
AcDbScale
 70
     0
300
3/16" = 1'-0"
140
0.1875
141
12.0
290
     0
  0
SCALE
  5
6B1C
102
{ACAD_REACTORS
330
6457
102
}
330
6457
100
AcDbScale
 70
     0
300
1/4" = 1'-0"
140
0.25
141
12.0
290
     0
  0
SCALE
  5
6B1D
102
{ACAD_REACTORS
330
6457
102
}
330
6457
100
AcDbScale
 70
     0
300
3/8" = 1'-0"
140
0.375
141
12.0
290
     0
  0
SCALE
  5
6B1E
102
{ACAD_REACTORS
330
6457
102
}
330
6457
100
AcDbScale
 70
     0
300
1/2" = 1'-0"
140
0.5
141
12.0
290
     0
  0
SCALE
  5
6B1F
102
{ACAD_REACTORS
330
6457
102
}
330
6457
100
AcDbScale
 70
     0
300
3/4" = 1'-0"
140
0.75
141
12.0
290
     0
  0
SCALE
  5
6B20
102
{ACAD_REACTORS
330
6457
102
}
330
6457
100
AcDbScale
 70
     0
300
1" = 1'-0"
140
1.0
141
12.0
290
     0
  0
SCALE
  5
6B21
102
{ACAD_REACTORS
330
6457
102
}
330
6457
100
AcDbScale
 70
     0
300
1-1/2" = 1'-0"
140
1.5
141
12.0
290
     0
  0
SCALE
  5
6B22
102
{ACAD_REACTORS
330
6457
102
}
330
6457
100
AcDbScale
 70
     0
300
3" = 1'-0"
140
3.0
141
12.0
290
     0
  0
SCALE
  5
6B23
102
{ACAD_REACTORS
330
6457
102
}
330
6457
100
AcDbScale
 70
     0
300
6" = 1'-0"
140
6.0
141
12.0
290
     0
  0
SCALE
  5
6B24
102
{ACAD_REACTORS
330
6457
102
}
330
6457
100
AcDbScale
 70
     0
300
1'-0" = 1'-0"
140
12.0
141
12.0
290
     0
  0
TABLESTYLE
  5
6456
102
{ACAD_XDICTIONARY
360
64A5
102
}
102
{ACAD_REACTORS
330
6455
102
}
330
6455
100
AcDbTableStyle
  3
Standard
 70
     0
 71
     0
 40
0.06
 41
0.06
280
     0
281
     0
  7
STANDARD
140
0.18
170
     2
 62
     0
 63
     7
283
     0
274
    -2
284
     1
 64
     0
275
    -2
285
     1
 65
     0
276
    -2
286
     1
 66
     0
277
    -2
287
     1
 67
     0
278
    -2
288
     1
 68
     0
279
    -2
289
     1
 69
     0
  7
STANDARD
140
0.25
170
     5
 62
     0
 63
     7
283
     0
274
    -2
284
     1
 64
     0
275
    -2
285
     1
 65
     0
276
    -2
286
     1
 66
     0
277
    -2
287
     1
 67
     0
278
    -2
288
     1
 68
     0
279
    -2
289
     1
 69
     0
  7
STANDARD
140
0.18
170
     5
 62
     0
 63
     7
283
     0
274
    -2
284
     1
 64
     0
275
    -2
285
     1
 65
     0
276
    -2
286
     1
 66
     0
277
    -2
287
     1
 67
     0
278
    -2
288
     1
 68
     0
279
    -2
289
     1
 69
     0
  0
VISUALSTYLE
  5
6441
102
{ACAD_XDICTIONARY
360
6B40
102
}
102
{ACAD_REACTORS
330
643B
102
}
330
643B
100
AcDbVisualStyle
  2
2dWireframe
 70
     4
 71
     0
 72
     2
 73
     0
 90
        0
 40
-0.6
 41
-30.0
 62
     5
 63
     7
 74
     1
 91
        4
 64
     7
 65
   257
 75
     1
175
     1
 42
1.0
 92
        0
 66
   257
 43
1.0
 76
     1
 77
     6
 78
     2
 67
     7
 79
     5
170
     0
171
     0
290
     0
174
     0
 93
        1
 44
0.0
173
     0
291
     0
 45
0.0
1001
ACAD
1000
AcDbSavedByObjectVersion
1070
     0
  0
VISUALSTYLE
  5
6A4C
102
{ACAD_XDICTIONARY
360
6B68
102
}
102
{ACAD_REACTORS
330
643B
102
}
330
643B
100
AcDbVisualStyle
  2
3D Hidden
 70
     6
 71
     1
 72
     2
 73
     2
 90
        0
 40
-0.6
 41
-30.0
 62
     5
 63
     7
 74
     2
 91
        2
 64
     7
 65
   257
 75
     2
175
     1
 42
40.0
 92
        0
 66
   257
 43
1.0
 76
     1
 77
     6
 78
     2
 67
     7
 79
     3
170
     0
171
     0
290
     0
174
     0
 93
        1
 44
0.0
173
     0
291
     0
 45
0.0
1001
ACAD
1000
AcDbSavedByObjectVersion
1070
     0
  0
VISUALSTYLE
  5
6A4D
102
{ACAD_XDICTIONARY
360
6B6A
102
}
102
{ACAD_REACTORS
330
643B
102
}
330
643B
100
AcDbVisualStyle
  2
3dWireframe
 70
     5
 71
     0
 72
     2
 73
     0
 90
        0
 40
-0.6
 41
-30.0
 62
     5
 63
     7
 74
     1
 91
        4
 64
     7
 65
   257
 75
     1
175
     1
 42
1.0
 92
        0
 66
   257
 43
1.0
 76
     1
 77
     6
 78
     2
 67
     7
 79
     5
170
     0
171
     0
290
     0
174
     0
 93
        1
 44
0.0
173
     0
291
     0
 45
0.0
1001
ACAD
1000
AcDbSavedByObjectVersion
1070
     0
  0
VISUALSTYLE
  5
6440
102
{ACAD_XDICTIONARY
360
6B3E
102
}
102
{ACAD_REACTORS
330
643B
102
}
330
643B
100
AcDbVisualStyle
  2
Basic
 70
     7
 71
     1
 72
     0
 73
     1
 90
        0
 40
-0.6
 41
-30.0
 62
     5
 63
     7
 74
     0
 91
        4
 64
     7
 65
   257
 75
     1
175
     1
 42
1.0
 92
        8
 66
     7
 43
1.0
 76
     1
 77
     6
 78
     2
 67
     7
 79
     5
170
     0
171
     0
290
     0
174
     0
 93
        1
 44
0.0
173
     0
291
     1
 45
0.0
1001
ACAD
1000
AcDbSavedByObjectVersion
1070
     0
  0
VISUALSTYLE
  5
6447
102
{ACAD_XDICTIONARY
360
6B4C
102
}
102
{ACAD_REACTORS
330
643B
102
}
330
643B
100
AcDbVisualStyle
  2
Brighten
 70
    12
 71
     2
 72
     2
 73
     0
 90
        0
 40
-0.6
 41
-30.0
 62
     5
 63
     7
 74
     1
 91
        4
 64
     7
 65
   257
 75
     1
175
     1
 42
1.0
 92
        8
 66
     7
 43
1.0
 76
     1
 77
     6
 78
     2
 67
     7
 79
     5
170
     0
171
     0
290
     0
174
     0
 93
        1
 44
50.0
173
     0
291
     1
 45
0.0
1001
ACAD
1000
AcDbSavedByObjectVersion
1070
     0
  0
VISUALSTYLE
  5
644B
102
{ACAD_XDICTIONARY
360
6B54
102
}
102
{ACAD_REACTORS
330
643B
102
}
330
643B
100
AcDbVisualStyle
  2
ColorChange
 70
    16
 71
     2
 72
     2
 73
     3
 90
        0
 40
-0.6
 41
-30.0
 62
     5
 63
     8
 74
     1
 91
        4
 64
     7
 65
   257
 75
     1
175
     1
 42
1.0
 92
        8
 66
     8
 43
1.0
 76
     1
 77
     6
 78
     2
 67
     7
 79
     5
170
     0
171
     0
290
     0
174
     0
 93
        1
 44
0.0
173
     0
291
     1
 45
0.0
1001
ACAD
1000
AcDbSavedByObjectVersion
1070
     0
  0
VISUALSTYLE
  5
6444
102
{ACAD_XDICTIONARY
360
6B46
102
}
102
{ACAD_REACTORS
330
643B
102
}
330
643B
100
AcDbVisualStyle
  2
Conceptual
 70
     9
 71
     3
 72
     2
 73
     0
 90
        0
 40
-0.6
 41
-30.0
 62
     5
 63
     7
 74
     2
 91
        2
 64
     7
 65
   257
 75
     1
175
     1
 42
179.0
 92
        8
 66
     7
 43
1.0
 76
     1
 77
     6
 78
     2
 67
     7
 79
     3
170
     0
171
     0
290
     0
174
     0
 93
        1
 44
0.0
173
     0
291
     0
 45
0.0
1001
ACAD
1000
AcDbSavedByObjectVersion
1070
     0
  0
VISUALSTYLE
  5
6446
102
{ACAD_XDICTIONARY
360
6B4A
102
}
102
{ACAD_REACTORS
330
643B
102
}
330
643B
100
AcDbVisualStyle
  2
Dim
 70
    11
 71
     2
 72
     2
 73
     0
 90
        0
 40
-0.6
 41
-30.0
 62
     5
 63
     7
 74
     1
 91
        4
 64
     7
 65
   257
 75
     1
175
     1
 42
1.0
 92
        8
 66
     7
 43
1.0
 76
     1
 77
     6
 78
     2
 67
     7
 79
     5
170
     0
171
     0
290
     0
174
     0
 93
        1
 44
-50.0
173
     0
291
     1
 45
0.0
1001
ACAD
1000
AcDbSavedByObjectVersion
1070
     0
  0
VISUALSTYLE
  5
6453
102
{ACAD_XDICTIONARY
360
6B64
102
}
102
{ACAD_REACTORS
330
643B
102
}
330
643B
100
AcDbVisualStyle
  2
EdgeColorOff
 70
    22
 71
     2
 72
     2
 73
     0
 90
        0
 40
-0.6
 41
-30.0
 62
     5
 63
     7
 74
     1
 91
        4
 64
     7
 65
   257
 75
     1
175
     1
 42
1.0
 92
        8
 66
     7
 43
1.0
 76
     1
 77
     6
 78
     2
 67
     7
 79
     5
170
     0
171
     0
290
     0
174
     0
 93
        1
 44
0.0
173
     0
291
     1
 45
0.0
1001
ACAD
1000
AcDbSavedByObjectVersion
1070
     0
  0
VISUALSTYLE
  5
644A
102
{ACAD_XDICTIONARY
360
6B52
102
}
102
{ACAD_REACTORS
330
643B
102
}
330
643B
100
AcDbVisualStyle
  2
Facepattern
 70
    15
 71
     2
 72
     2
 73
     0
 90
        0
 40
-0.6
 41
-30.0
 62
     5
 63
     7
 74
     1
 91
        4
 64
     7
 65
   257
 75
     1
175
     1
 42
1.0
 92
        8
 66
     7
 43
1.0
 76
     1
 77
     6
 78
     2
 67
     7
 79
     5
170
     0
171
     0
290
     0
174
     0
 93
        1
 44
0.0
173
     0
291
     1
 45
0.0
1001
ACAD
1000
AcDbSavedByObjectVersion
1070
     0
  0
VISUALSTYLE
  5
643C
102
{ACAD_XDICTIONARY
360
6B36
102
}
102
{ACAD_REACTORS
330
643B
102
}
330
643B
100
AcDbVisualStyle
  2
Flat
 70
     0
 71
     2
 72
     1
 73
     1
 90
        2
 40
-0.6
 41
30.0
 62
     5
 63
     7
 74
     0
 91
        0
 64
     7
 65
   257
 75
     1
175
     1
 42
1.0
 92
        8
 66
     7
 43
1.0
 76
     1
 77
     6
 78
     2
 67
     7
 79
     5
170
     0
171
     0
290
     0
174
     0
 93
       13
 44
0.0
173
     0
291
     1
 45
0.0
1001
ACAD
1000
AcDbSavedByObjectVersion
1070
     0
  0
VISUALSTYLE
  5
643D
102
{ACAD_XDICTIONARY
360
6B38
102
}
102
{ACAD_REACTORS
330
643B
102
}
330
643B
100
AcDbVisualStyle
  2
FlatWithEdges
 70
     1
 71
     2
 72
     1
 73
     1
 90
        2
 40
-0.6
 41
30.0
 62
     5
 63
     7
 74
     1
 91
        0
 64
     7
 65
   257
 75
     1
175
     1
 42
1.0
 92
        0
 66
   257
 43
1.0
 76
     1
 77
     6
 78
     2
 67
     7
 79
     5
170
     0
171
     0
290
     0
174
     0
 93
       13
 44
0.0
173
     0
291
     1
 45
0.0
1001
ACAD
1000
AcDbSavedByObjectVersion
1070
     0
  0
VISUALSTYLE
  5
643E
102
{ACAD_XDICTIONARY
360
6B3A
102
}
102
{ACAD_REACTORS
330
643B
102
}
330
643B
100
AcDbVisualStyle
  2
Gouraud
 70
     2
 71
     2
 72
     2
 73
     1
 90
        2
 40
-0.6
 41
30.0
 62
     5
 63
     7
 74
     0
 91
        0
 64
     7
 65
   257
 75
     1
175
     1
 42
1.0
 92
        0
 66
     7
 43
1.0
 76
     1
 77
     6
 78
     2
 67
     7
 79
     5
170
     0
171
     0
290
     0
174
     0
 93
       13
 44
0.0
173
     0
291
     1
 45
0.0
1001
ACAD
1000
AcDbSavedByObjectVersion
1070
     0
  0
VISUALSTYLE
  5
643F
102
{ACAD_XDICTIONARY
360
6B3C
102
}
102
{ACAD_REACTORS
330
643B
102
}
330
643B
100
AcDbVisualStyle
  2
GouraudWithEdges
 70
     3
 71
     2
 72
     2
 73
     1
 90
        2
 40
-0.6
 41
30.0
 62
     5
 63
     7
 74
     1
 91
        0
 64
     7
 65
   257
 75
     1
175
     1
 42
1.0
 92
        0
 66
   257
 43
1.0
 76
     1
 77
     6
 78
     2
 67
     7
 79
     5
170
     0
171
     0
290
     0
174
     0
 93
       13
 44
0.0
173
     0
291
     1
 45
0.0
1001
ACAD
1000
AcDbSavedByObjectVersion
1070
     0
  0
VISUALSTYLE
  5
6443
102
{ACAD_XDICTIONARY
360
6B44
102
}
102
{ACAD_REACTORS
330
643B
102
}
330
643B
100
AcDbVisualStyle
  2
Hidden
 70
     6
 71
     1
 72
     2
 73
     2
 90
        0
 40
-0.6
 41
-30.0
 62
     5
 63
     7
 74
     2
 91
        2
 64
     7
 65
   257
 75
     2
175
     1
 42
40.0
 92
        0
 66
   257
 43
1.0
 76
     1
 77
     6
 78
     2
 67
     7
 79
     3
170
     0
171
     0
290
     0
174
     0
 93
        1
 44
0.0
173
     0
291
     0
 45
0.0
1001
ACAD
1000
AcDbSavedByObjectVersion
1070
     0
  0
VISUALSTYLE
  5
6451
102
{ACAD_XDICTIONARY
360
6B60
102
}
102
{ACAD_REACTORS
330
643B
102
}
330
643B
100
AcDbVisualStyle
  2
JitterOff
 70
    20
 71
     2
 72
     2
 73
     0
 90
        0
 40
-0.6
 41
-30.0
 62
     5
 63
     7
 74
     1
 91
        4
 64
     7
 65
   257
 75
     1
175
     1
 42
1.0
 92
       10
 66
     7
 43
1.0
 76
     1
 77
     6
 78
     2
 67
     7
 79
     5
170
     0
171
     0
290
     0
174
     0
 93
        1
 44
0.0
173
     0
291
     1
 45
0.0
1001
ACAD
1000
AcDbSavedByObjectVersion
1070
     0
  0
VISUALSTYLE
  5
6449
102
{ACAD_XDICTIONARY
360
6B50
102
}
102
{ACAD_REACTORS
330
643B
102
}
330
643B
100
AcDbVisualStyle
  2
Linepattern
 70
    14
 71
     2
 72
     2
 73
     0
 90
        0
 40
-0.6
 41
-30.0
 62
     5
 63
     7
 74
     1
 91
        4
 64
     7
 65
   257
 75
     7
175
     7
 42
1.0
 92
        8
 66
     7
 43
1.0
 76
     1
 77
     6
 78
     2
 67
     7
 79
     5
170
     0
171
     0
290
     0
174
     0
 93
        1
 44
0.0
173
     0
291
     1
 45
0.0
1001
ACAD
1000
AcDbSavedByObjectVersion
1070
     0
  0
VISUALSTYLE
  5
6452
102
{ACAD_XDICTIONARY
360
6B62
102
}
102
{ACAD_REACTORS
330
643B
102
}
330
643B
100
AcDbVisualStyle
  2
OverhangOff
 70
    21
 71
     2
 72
     2
 73
     0
 90
        0
 40
-0.6
 41
-30.0
 62
     5
 63
     7
 74
     1
 91
        4
 64
     7
 65
   257
 75
     1
175
     1
 42
1.0
 92
        9
 66
     7
 43
1.0
 76
     1
 77
     6
 78
     2
 67
     7
 79
     5
170
     0
171
     0
290
     0
174
     0
 93
        1
 44
0.0
173
     0
291
     1
 45
0.0
1001
ACAD
1000
AcDbSavedByObjectVersion
1070
     0
  0
VISUALSTYLE
  5
6445
102
{ACAD_XDICTIONARY
360
6B48
102
}
102
{ACAD_REACTORS
330
643B
102
}
330
643B
100
AcDbVisualStyle
  2
Realistic
 70
     8
 71
     2
 72
     2
 73
     0
 90
        2
 40
-0.6
 41
30.0
 62
     5
 63
     7
 74
     0
 91
        0
 64
     7
 65
   257
 75
     1
175
     1
 42
1.0
 92
        8
 66
   257
 43
1.0
 76
     1
 77
     6
 78
     2
 67
     7
 79
     3
170
     0
171
     0
290
     0
174
     0
 93
       13
 44
0.0
173
     0
291
     0
 45
0.0
1001
ACAD
1000
AcDbSavedByObjectVersion
1070
     0
  0
VISUALSTYLE
  5
6450
102
{ACAD_XDICTIONARY
360
6B5E
102
}
102
{ACAD_REACTORS
330
643B
102
}
330
643B
100
AcDbVisualStyle
  2
Shaded
 70
    27
 71
     2
 72
     2
 73
     1
 90
        2
 40
-0.6
 41
30.0
 62
     5
 63
     7
 74
     0
 91
        4
 64
     7
 65
   257
 75
     1
175
     1
 42
1.0
 92
        8
 66
   257
 43
1.0
 76
     1
 77
     6
 78
     2
 67
     8
 79
     3
170
     0
171
     0
290
     0
174
     0
 93
        5
 44
0.0
173
     0
291
     0
 45
0.0
1001
ACAD
1000
AcDbSavedByObjectVersion
1070
     0
  0
VISUALSTYLE
  5
644F
102
{ACAD_XDICTIONARY
360
6B5C
102
}
102
{ACAD_REACTORS
330
643B
102
}
330
643B
100
AcDbVisualStyle
  2
Shaded with edges
 70
    26
 71
     2
 72
     2
 73
     1
 90
        2
 40
-0.6
 41
30.0
 62
     5
 63
     7
 74
     1
 91
       10
 64
     7
 65
   257
 75
     2
175
     1
 42
1.0
 92
        8
 66
   257
 43
1.0
 76
     1
 77
     6
 78
     2
 67
     7
 79
     3
170
     0
171
     0
290
     0
174
     0
 93
        5
 44
0.0
173
     0
291
     0
 45
0.0
1001
ACAD
1000
AcDbSavedByObjectVersion
1070
     0
  0
VISUALSTYLE
  5
644C
102
{ACAD_XDICTIONARY
360
6B56
102
}
102
{ACAD_REACTORS
330
643B
102
}
330
643B
100
AcDbVisualStyle
  2
Shades of Gray
 70
    23
 71
     2
 72
     2
 73
     3
 90
        0
 40
-0.6
 41
-30.0
 62
     5
 63
     7
 74
     2
 91
        2
 64
     7
 65
     7
 75
     1
175
     1
 42
40.0
 92
        8
 66
     7
 43
1.0
 76
     1
 77
     6
 78
     2
 67
     7
 79
     3
170
     0
171
     0
290
     0
174
     0
 93
        1
 44
0.0
173
     0
291
     0
 45
0.0
1001
ACAD
1000
AcDbSavedByObjectVersion
1070
     0
  0
VISUALSTYLE
  5
644D
102
{ACAD_XDICTIONARY
360
6B58
102
}
102
{ACAD_REACTORS
330
643B
102
}
330
643B
100
AcDbVisualStyle
  2
Sketchy
 70
    24
 71
     1
 72
     2
 73
     2
 90
        0
 40
-0.6
 41
-30.0
 62
     5
 63
     7
 74
     2
 91
        2
 64
     7
 65
     7
 75
     1
175
     1
 42
40.0
 92
       11
 66
     7
 43
1.0
 76
     1
 77
     6
 78
     2
 67
     7
 79
     6
170
     0
171
     0
290
     0
174
     0
 93
        1
 44
0.0
173
     0
291
     0
 45
0.0
1001
ACAD
1000
AcDbSavedByObjectVersion
1070
     0
  0
VISUALSTYLE
  5
6448
102
{ACAD_XDICTIONARY
360
6B4E
102
}
102
{ACAD_REACTORS
330
643B
102
}
330
643B
100
AcDbVisualStyle
  2
Thicken
 70
    13
 71
     2
 72
     2
 73
     0
 90
        0
 40
-0.6
 41
-30.0
 62
     5
 63
     7
 74
     1
 91
        4
 64
     7
 65
   257
 75
     1
175
     1
 42
1.0
 92
       12
 66
     7
 43
1.0
 76
     1
 77
     6
 78
     2
 67
     7
 79
     5
170
     0
171
     0
290
     0
174
     0
 93
        1
 44
0.0
173
     0
291
     1
 45
0.0
1001
ACAD
1000
AcDbSavedByObjectVersion
1070
     0
  0
VISUALSTYLE
  5
6442
102
{ACAD_XDICTIONARY
360
6B42
102
}
102
{ACAD_REACTORS
330
643B
102
}
330
643B
100
AcDbVisualStyle
  2
Wireframe
 70
     5
 71
     0
 72
     2
 73
     0
 90
        0
 40
-0.6
 41
-30.0
 62
     5
 63
     7
 74
     1
 91
        4
 64
     7
 65
   257
 75
     1
175
     1
 42
1.0
 92
        0
 66
   257
 43
1.0
 76
     1
 77
     6
 78
     2
 67
     7
 79
     3
170
     0
171
     0
290
     0
174
     0
 93
        1
 44
0.0
173
     0
291
     0
 45
0.0
1001
ACAD
1000
AcDbSavedByObjectVersion
1070
     0
  0
VISUALSTYLE
  5
644E
102
{ACAD_XDICTIONARY
360
6B5A
102
}
102
{ACAD_REACTORS
330
643B
102
}
330
643B
100
AcDbVisualStyle
  2
X-Ray
 70
    25
 71
     2
 72
     2
 73
     1
 90
        1
 40
0.5
 41
-30.0
 62
     5
 63
     7
 74
     1
 91
        0
 64
     7
 65
   257
 75
     1
175
     1
 42
1.0
 92
        8
 66
     7
 43
1.0
 76
     1
 77
     6
 78
     2
 67
     7
 79
     3
170
     0
171
     0
290
     0
174
     0
 93
       13
 44
0.0
173
     0
291
     0
 45
0.0
1001
ACAD
1000
AcDbSavedByObjectVersion
1070
     0
  0
DICTIONARYVAR
  5
64E6
102
{ACAD_REACTORS
330
3E
102
}
330
3E
100
DictionaryVariables
280
     0
  1
1:1
  0
DICTIONARYVAR
  5
64E5
102
{ACAD_REACTORS
330
3E
102
}
330
3E
100
DictionaryVariables
280
     0
  1
STANDARD
  0
DICTIONARYVAR
  5
64E4
102
{ACAD_REACTORS
330
3E
102
}
330
3E
100
DictionaryVariables
280
     0
  1
STANDARD
  0
DICTIONARYVAR
  5
3F
102
{ACAD_REACTORS
330
3E
102
}
330
3E
100
DictionaryVariables
280
     0
  1
0
  0
DICTIONARYVAR
  5
64E9
102
{ACAD_REACTORS
330
3E
102
}
330
3E
100
DictionaryVariables
280
     0
  1
1
  0
DICTIONARYVAR
  5
64E8
102
{ACAD_REACTORS
330
3E
102
}
330
3E
100
DictionaryVariables
280
     0
  1
0
  0
DICTIONARYVAR
  5
69D9
102
{ACAD_REACTORS
330
3E
102
}
330
3E
100
DictionaryVariables
280
     0
  1
1
  0
DICTIONARYVAR
  5
69DA
102
{ACAD_REACTORS
330
3E
102
}
330
3E
100
DictionaryVariables
280
     0
  1
15
  0
DICTIONARYVAR
  5
69D8
102
{ACAD_REACTORS
330
3E
102
}
330
3E
100
DictionaryVariables
280
     0
  1
0
  0
DICTIONARYVAR
  5
69D7
102
{ACAD_REACTORS
330
3E
102
}
330
3E
100
DictionaryVariables
280
     0
  1
0
  0
DICTIONARYVAR
  5
64E7
102
{ACAD_REACTORS
330
3E
102
}
330
3E
100
DictionaryVariables
280
     0
  1
127
  0
DICTIONARYVAR
  5
6B25
102
{ACAD_REACTORS
330
3E
102
}
330
3E
100
DictionaryVariables
280
     0
  1
2
  0
DICTIONARY
  5
6B31
330
55E3
100
AcDbDictionary
280
     1
281
     1
  3
ACAD_XREC_ROUNDTRIP
360
6B32
  0
DICTIONARY
  5
6B2F
330
55E2
100
AcDbDictionary
280
     1
281
     1
  3
ACAD_XREC_ROUNDTRIP
360
6B30
  0
DICTIONARY
  5
642C
330
642B
100
AcDbDictionary
280
     1
281
     1
  3
ACAD_XREC_ROUNDTRIP
360
6B34
  3
BUMPTILE
360
642E
  3
DIFFUSETILE
360
642D
  3
OPACITYTILE
360
6431
  3
REFLECTIONTILE
360
6430
  3
REFRACTIONTILE
360
6432
  3
SPECULARTILE
360
642F
  0
DICTIONARY
  5
6424
330
6423
100
AcDbDictionary
280
     1
281
     1
  3
ACAD_XREC_ROUNDTRIP
360
6B33
  3
BUMPTILE
360
6426
  3
DIFFUSETILE
360
6425
  3
OPACITYTILE
360
6429
  3
REFLECTIONTILE
360
6428
  3
REFRACTIONTILE
360
642A
  3
SPECULARTILE
360
6427
  0
DICTIONARY
  5
6434
330
6433
100
AcDbDictionary
280
     1
281
     1
  3
ACAD_XREC_ROUNDTRIP
360
6B35
  3
BUMPTILE
360
6436
  3
DIFFUSETILE
360
6435
  3
OPACITYTILE
360
6439
  3
REFLECTIONTILE
360
6438
  3
REFRACTIONTILE
360
643A
  3
SPECULARTILE
360
6437
  0
DICTIONARY
  5
6B29
330
646A
100
AcDbDictionary
280
     1
281
     1
  3
ACAD_XREC_ROUNDTRIP
360
6B2A
  0
DICTIONARY
  5
64A5
330
6456
100
AcDbDictionary
280
     1
281
     1
  3
ACAD_ROUNDTRIP_2008_TABLESTYLE_CELLSTYLEMAP
360
6B28
  3
ACAD_XREC_ROUNDTRIP
360
6B66
  0
DICTIONARY
  5
6B40
330
6441
100
AcDbDictionary
280
     1
281
     1
  3
ACAD_XREC_ROUNDTRIP
360
6B41
  0
DICTIONARY
  5
6B68
330
6A4C
100
AcDbDictionary
280
     1
281
     1
  3
ACAD_XREC_ROUNDTRIP
360
6B69
  0
DICTIONARY
  5
6B6A
330
6A4D
100
AcDbDictionary
280
     1
281
     1
  3
ACAD_XREC_ROUNDTRIP
360
6B6B
  0
DICTIONARY
  5
6B3E
330
6440
100
AcDbDictionary
280
     1
281
     1
  3
ACAD_XREC_ROUNDTRIP
360
6B3F
  0
DICTIONARY
  5
6B4C
330
6447
100
AcDbDictionary
280
     1
281
     1
  3
ACAD_XREC_ROUNDTRIP
360
6B4D
  0
DICTIONARY
  5
6B54
330
644B
100
AcDbDictionary
280
     1
281
     1
  3
ACAD_XREC_ROUNDTRIP
360
6B55
  0
DICTIONARY
  5
6B46
330
6444
100
AcDbDictionary
280
     1
281
     1
  3
ACAD_XREC_ROUNDTRIP
360
6B47
  0
DICTIONARY
  5
6B4A
330
6446
100
AcDbDictionary
280
     1
281
     1
  3
ACAD_XREC_ROUNDTRIP
360
6B4B
  0
DICTIONARY
  5
6B64
330
6453
100
AcDbDictionary
280
     1
281
     1
  3
ACAD_XREC_ROUNDTRIP
360
6B65
  0
DICTIONARY
  5
6B52
330
644A
100
AcDbDictionary
280
     1
281
     1
  3
ACAD_XREC_ROUNDTRIP
360
6B53
  0
DICTIONARY
  5
6B36
330
643C
100
AcDbDictionary
280
     1
281
     1
  3
ACAD_XREC_ROUNDTRIP
360
6B37
  0
DICTIONARY
  5
6B38
330
643D
100
AcDbDictionary
280
     1
281
     1
  3
ACAD_XREC_ROUNDTRIP
360
6B39
  0
DICTIONARY
  5
6B3A
330
643E
100
AcDbDictionary
280
     1
281
     1
  3
ACAD_XREC_ROUNDTRIP
360
6B3B
  0
DICTIONARY
  5
6B3C
330
643F
100
AcDbDictionary
280
     1
281
     1
  3
ACAD_XREC_ROUNDTRIP
360
6B3D
  0
DICTIONARY
  5
6B44
330
6443
100
AcDbDictionary
280
     1
281
     1
  3
ACAD_XREC_ROUNDTRIP
360
6B45
  0
DICTIONARY
  5
6B60
330
6451
100
AcDbDictionary
280
     1
281
     1
  3
ACAD_XREC_ROUNDTRIP
360
6B61
  0
DICTIONARY
  5
6B50
330
6449
100
AcDbDictionary
280
     1
281
     1
  3
ACAD_XREC_ROUNDTRIP
360
6B51
  0
DICTIONARY
  5
6B62
330
6452
100
AcDbDictionary
280
     1
281
     1
  3
ACAD_XREC_ROUNDTRIP
360
6B63
  0
DICTIONARY
  5
6B48
330
6445
100
AcDbDictionary
280
     1
281
     1
  3
ACAD_XREC_ROUNDTRIP
360
6B49
  0
DICTIONARY
  5
6B5E
330
6450
100
AcDbDictionary
280
     1
281
     1
  3
ACAD_XREC_ROUNDTRIP
360
6B5F
  0
DICTIONARY
  5
6B5C
330
644F
100
AcDbDictionary
280
     1
281
     1
  3
ACAD_XREC_ROUNDTRIP
360
6B5D
  0
DICTIONARY
  5
6B56
330
644C
100
AcDbDictionary
280
     1
281
     1
  3
ACAD_XREC_ROUNDTRIP
360
6B57
  0
DICTIONARY
  5
6B58
330
644D
100
AcDbDictionary
280
     1
281
     1
  3
ACAD_XREC_ROUNDTRIP
360
6B59
  0
DICTIONARY
  5
6B4E
330
6448
100
AcDbDictionary
280
     1
281
     1
  3
ACAD_XREC_ROUNDTRIP
360
6B4F
  0
DICTIONARY
  5
6B42
330
6442
100
AcDbDictionary
280
     1
281
     1
  3
ACAD_XREC_ROUNDTRIP
360
6B43
  0
DICTIONARY
  5
6B5A
330
644E
100
AcDbDictionary
280
     1
281
     1
  3
ACAD_XREC_ROUNDTRIP
360
6B5B
  0
XRECORD
  5
6B32
102
{ACAD_REACTORS
330
6B31
102
}
330
6B31
100
AcDbXrecord
280
     1
102
SHADEPLOT
 70
     0
102
SHADEPLOTRESLEVEL
 70
     2
102
SHADEPLOTCUSTOMDPI
 70
   300
  0
XRECORD
  5
6B30
102
{ACAD_REACTORS
330
6B2F
102
}
330
6B2F
100
AcDbXrecord
280
     1
102
SHADEPLOT
 70
     0
102
SHADEPLOTRESLEVEL
 70
     2
102
SHADEPLOTCUSTOMDPI
 70
   300
  0
XRECORD
  5
6B34
102
{ACAD_REACTORS
330
642C
102
}
330
642C
100
AcDbXrecord
280
     1
102
MATERIAL
148
0.0
149
0.0
149
0.0
 93
        0
 94
      127
282
     0
 72
     0
 77
     0
171
     0
175
     0
179
     0
273
     0
  0
XRECORD
  5
642E
102
{ACAD_REACTORS
330
642C
102
}
330
642C
100
AcDbXrecord
280
     1
270
     1
271
     1
  0
XRECORD
  5
642D
102
{ACAD_REACTORS
330
642C
102
}
330
642C
100
AcDbXrecord
280
     1
270
     1
271
     1
  0
XRECORD
  5
6431
102
{ACAD_REACTORS
330
642C
102
}
330
642C
100
AcDbXrecord
280
     1
270
     1
271
     1
  0
XRECORD
  5
6430
102
{ACAD_REACTORS
330
642C
102
}
330
642C
100
AcDbXrecord
280
     1
270
     1
271
     1
  0
XRECORD
  5
6432
102
{ACAD_REACTORS
330
642C
102
}
330
642C
100
AcDbXrecord
280
     1
270
     1
271
     1
  0
XRECORD
  5
642F
102
{ACAD_REACTORS
330
642C
102
}
330
642C
100
AcDbXrecord
280
     1
270
     1
271
     1
  0
XRECORD
  5
6B33
102
{ACAD_REACTORS
330
6424
102
}
330
6424
100
AcDbXrecord
280
     1
102
MATERIAL
148
0.0
149
0.0
149
0.0
 93
        0
 94
      127
282
     0
 72
     0
 77
     0
171
     0
175
     0
179
     0
273
     0
  0
XRECORD
  5
6426
102
{ACAD_REACTORS
330
6424
102
}
330
6424
100
AcDbXrecord
280
     1
270
     1
271
     1
  0
XRECORD
  5
6425
102
{ACAD_REACTORS
330
6424
102
}
330
6424
100
AcDbXrecord
280
     1
270
     1
271
     1
  0
XRECORD
  5
6429
102
{ACAD_REACTORS
330
6424
102
}
330
6424
100
AcDbXrecord
280
     1
270
     1
271
     1
  0
XRECORD
  5
6428
102
{ACAD_REACTORS
330
6424
102
}
330
6424
100
AcDbXrecord
280
     1
270
     1
271
     1
  0
XRECORD
  5
642A
102
{ACAD_REACTORS
330
6424
102
}
330
6424
100
AcDbXrecord
280
     1
270
     1
271
     1
  0
XRECORD
  5
6427
102
{ACAD_REACTORS
330
6424
102
}
330
6424
100
AcDbXrecord
280
     1
270
     1
271
     1
  0
XRECORD
  5
6B35
102
{ACAD_REACTORS
330
6434
102
}
330
6434
100
AcDbXrecord
280
     1
102
MATERIAL
148
0.0
149
0.0
149
0.0
 93
        0
 94
      127
282
     0
 72
     0
 77
     0
171
     0
175
     0
179
     0
273
     0
  0
XRECORD
  5
6436
102
{ACAD_REACTORS
330
6434
102
}
330
6434
100
AcDbXrecord
280
     1
270
     1
271
     1
  0
XRECORD
  5
6435
102
{ACAD_REACTORS
330
6434
102
}
330
6434
100
AcDbXrecord
280
     1
270
     1
271
     1
  0
XRECORD
  5
6439
102
{ACAD_REACTORS
330
6434
102
}
330
6434
100
AcDbXrecord
280
     1
270
     1
271
     1
  0
XRECORD
  5
6438
102
{ACAD_REACTORS
330
6434
102
}
330
6434
100
AcDbXrecord
280
     1
270
     1
271
     1
  0
XRECORD
  5
643A
102
{ACAD_REACTORS
330
6434
102
}
330
6434
100
AcDbXrecord
280
     1
270
     1
271
     1
  0
XRECORD
  5
6437
102
{ACAD_REACTORS
330
6434
102
}
330
6434
100
AcDbXrecord
280
     1
270
     1
271
     1
  0
XRECORD
  5
6B2A
102
{ACAD_REACTORS
330
6B29
102
}
330
6B29
100
AcDbXrecord
280
     1
102
ACAD_ROUNDTRIP_2012_MLEADER_STYLE
298
     1
  0
CELLSTYLEMAP
  5
6B28
102
{ACAD_REACTORS
330
64A5
102
}
330
64A5
100
AcDbCellStyleMap
 90
        3
300
CELLSTYLE
  1
TABLEFORMAT_BEGIN
 90
        5
170
     1
 91
        0
 92
    32768
 62
   257
 93
        1
300
CONTENTFORMAT
  1
CONTENTFORMAT_BEGIN
 90
        0
 91
        0
 92
      512
 93
        0
300

 40
0.0
140
1.0
 94
        5
 62
     0
340
F
144
0.25
309
CONTENTFORMAT_END
171
     0
 94
        0
309
TABLEFORMAT_END
  1
CELLSTYLE_BEGIN
 90
        1
 91
        1
300
_TITLE
309
CELLSTYLE_END
300
CELLSTYLE
  1
TABLEFORMAT_BEGIN
 90
        5
170
     1
 91
        0
 92
        0
 62
   257
 93
        1
300
CONTENTFORMAT
  1
CONTENTFORMAT_BEGIN
 90
        0
 91
        0
 92
      512
 93
        0
300

 40
0.0
140
1.0
 94
        5
 62
     0
340
F
144
0.18
309
CONTENTFORMAT_END
171
     0
 94
        0
309
TABLEFORMAT_END
  1
CELLSTYLE_BEGIN
 90
        2
 91
        1
300
_HEADER
309
CELLSTYLE_END
300
CELLSTYLE
  1
TABLEFORMAT_BEGIN
 90
        5
170
     1
 91
        0
 92
        0
 62
   257
 93
        1
300
CONTENTFORMAT
  1
CONTENTFORMAT_BEGIN
 90
        0
 91
        0
 92
      512
 93
        0
300

 40
0.0
140
1.0
 94
        2
 62
     0
340
F
144
0.18
309
CONTENTFORMAT_END
171
     0
 94
        0
309
TABLEFORMAT_END
  1
CELLSTYLE_BEGIN
 90
        3
 91
        2
300
_DATA
309
CELLSTYLE_END
  0
XRECORD
  5
6B66
102
{ACAD_REACTORS
330
64A5
102
}
330
64A5
100
AcDbXrecord
280
     1
102
ACAD_ROUNDTRIP_PRE2007_TABLESTYLE
 90
      512
 91
        0
  1

 92
      512
 93
        0
  2

 94
      512
 95
        0
  3

  0
XRECORD
  5
6B41
102
{ACAD_REACTORS
330
6B40
102
}
330
6B40
100
AcDbXrecord
280
     1
102
RTVSPropertyOp0
 70
     1
102
RTVSPropertyOp1
 70
     1
102
RTVSPropertyOp2
 70
     1
102
RTVSPropertyOp3
 70
     1
102
RTVSPropertyOp4
 70
     1
102
RTVSPropertyOp5
 70
     1
102
RTVSPropertyOp6
 70
     1
102
RTVSPropertyOp7
 70
     1
102
RTVSPropertyOp8
 70
     1
102
RTVSPropertyOp9
 70
     1
102
RTVSPropertyOp10
 70
     1
102
RTVSPropertyOp11
 70
     1
102
RTVSPropertyOp12
 70
     1
102
RTVSPropertyOp13
 70
     1
102
RTVSPropertyOp14
 70
     1
102
RTVSPropertyOp15
 70
     1
102
RTVSPropertyOp16
 70
     1
102
RTVSPropertyOp17
 70
     1
102
RTVSPropertyOp18
 70
     1
102
RTVSPropertyOp19
 70
     1
102
RTVSPropertyOp20
 70
     1
102
RTVSPropertyOp21
 70
     1
102
RTVSPropertyOp22
 70
     1
102
RTVSPropertyOp23
 70
     1
102
RTVSPropertyOp24
 70
     1
102
RTVSPropertyOp25
 70
     1
102
RTVSPropertyOp26
 70
     1
102
RTVSPropertyOp27
 70
     1
102
RTVSPropertyOp28
 70
     1
102
RTVSPropertyOp29
 70
     1
102
RTVSPropertyOp30
 70
     1
102
RTVSPropertyOp31
 70
     1
102
RTVSPropertyOp32
 70
     1
  0
XRECORD
  5
6B69
102
{ACAD_REACTORS
330
6B68
102
}
330
6B68
100
AcDbXrecord
280
     1
102
RTVSPropertyOp0
 70
     1
102
RTVSPropertyOp1
 70
     1
102
RTVSPropertyOp2
 70
     1
102
RTVSPropertyOp3
 70
     1
102
RTVSPropertyOp4
 70
     1
102
RTVSPropertyOp5
 70
     1
102
RTVSPropertyOp6
 70
     1
102
RTVSPropertyOp7
 70
     1
102
RTVSPropertyOp8
 70
     1
102
RTVSPropertyOp9
 70
     1
102
RTVSPropertyOp10
 70
     1
102
RTVSPropertyOp11
 70
     1
102
RTVSPropertyOp12
 70
     1
102
RTVSPropertyOp13
 70
     1
102
RTVSPropertyOp14
 70
     1
102
RTVSPropertyOp15
 70
     1
102
RTVSPropertyOp16
 70
     1
102
RTVSPropertyOp17
 70
     1
102
RTVSPropertyOp18
 70
     1
102
RTVSPropertyOp19
 70
     1
102
RTVSPropertyOp20
 70
     1
102
RTVSPropertyOp21
 70
     1
102
RTVSPropertyOp22
 70
     1
102
RTVSPropertyOp23
 70
     1
102
RTVSPropertyOp24
 70
     1
102
RTVSPropertyOp25
 70
     1
102
RTVSPropertyOp26
 70
     1
102
RTVSPropertyOp27
 70
     1
102
RTVSPropertyOp28
 70
     1
102
RTVSPropertyOp29
 70
     1
102
RTVSPropertyOp30
 70
     1
102
RTVSPropertyOp31
 70
     1
102
RTVSPropertyOp32
 70
     1
  0
XRECORD
  5
6B6B
102
{ACAD_REACTORS
330
6B6A
102
}
330
6B6A
100
AcDbXrecord
280
     1
102
RTVSPropertyOp0
 70
     1
102
RTVSPropertyOp1
 70
     1
102
RTVSPropertyOp2
 70
     1
102
RTVSPropertyOp3
 70
     1
102
RTVSPropertyOp4
 70
     1
102
RTVSPropertyOp5
 70
     1
102
RTVSPropertyOp6
 70
     1
102
RTVSPropertyOp7
 70
     1
102
RTVSPropertyOp8
 70
     1
102
RTVSPropertyOp9
 70
     1
102
RTVSPropertyOp10
 70
     1
102
RTVSPropertyOp11
 70
     1
102
RTVSPropertyOp12
 70
     1
102
RTVSPropertyOp13
 70
     1
102
RTVSPropertyOp14
 70
     1
102
RTVSPropertyOp15
 70
     1
102
RTVSPropertyOp16
 70
     1
102
RTVSPropertyOp17
 70
     1
102
RTVSPropertyOp18
 70
     1
102
RTVSPropertyOp19
 70
     1
102
RTVSPropertyOp20
 70
     1
102
RTVSPropertyOp21
 70
     1
102
RTVSPropertyOp22
 70
     1
102
RTVSPropertyOp23
 70
     1
102
RTVSPropertyOp24
 70
     1
102
RTVSPropertyOp25
 70
     1
102
RTVSPropertyOp26
 70
     1
102
RTVSPropertyOp27
 70
     1
102
RTVSPropertyOp28
 70
     1
102
RTVSPropertyOp29
 70
     1
102
RTVSPropertyOp30
 70
     1
102
RTVSPropertyOp31
 70
     1
102
RTVSPropertyOp32
 70
     1
  0
XRECORD
  5
6B3F
102
{ACAD_REACTORS
330
6B3E
102
}
330
6B3E
100
AcDbXrecord
280
     1
102
RTVSPropertyOp0
 70
     1
102
RTVSPropertyOp1
 70
     1
102
RTVSPropertyOp2
 70
     1
102
RTVSPropertyOp3
 70
     1
102
RTVSPropertyOp4
 70
     1
102
RTVSPropertyOp5
 70
     1
102
RTVSPropertyOp6
 70
     1
102
RTVSPropertyOp7
 70
     1
102
RTVSPropertyOp8
 70
     1
102
RTVSPropertyOp9
 70
     1
102
RTVSPropertyOp10
 70
     1
102
RTVSPropertyOp11
 70
     1
102
RTVSPropertyOp12
 70
     1
102
RTVSPropertyOp13
 70
     1
102
RTVSPropertyOp14
 70
     1
102
RTVSPropertyOp15
 70
     1
102
RTVSPropertyOp16
 70
     1
102
RTVSPropertyOp17
 70
     1
102
RTVSPropertyOp18
 70
     1
102
RTVSPropertyOp19
 70
     1
102
RTVSPropertyOp20
 70
     1
102
RTVSPropertyOp21
 70
     1
102
RTVSPropertyOp22
 70
     1
102
RTVSPropertyOp23
 70
     1
102
RTVSPropertyOp24
 70
     1
102
RTVSPropertyOp25
 70
     1
102
RTVSPropertyOp26
 70
     1
102
RTVSPropertyOp27
 70
     1
102
RTVSPropertyOp28
 70
     1
102
RTVSPropertyOp29
 70
     1
102
RTVSPropertyOp30
 70
     1
102
RTVSPropertyOp31
 70
     1
102
RTVSPropertyOp32
 70
     1
  0
XRECORD
  5
6B4D
102
{ACAD_REACTORS
330
6B4C
102
}
330
6B4C
100
AcDbXrecord
280
     1
102
RTVSPropertyOp0
 70
     1
102
RTVSPropertyOp1
 70
     1
102
RTVSPropertyOp2
 70
     1
102
RTVSPropertyOp3
 70
     1
102
RTVSPropertyOp4
 70
     1
102
RTVSPropertyOp5
 70
     1
102
RTVSPropertyOp6
 70
     1
102
RTVSPropertyOp7
 70
     1
102
RTVSPropertyOp8
 70
     1
102
RTVSPropertyOp9
 70
     1
102
RTVSPropertyOp10
 70
     1
102
RTVSPropertyOp11
 70
     1
102
RTVSPropertyOp12
 70
     1
102
RTVSPropertyOp13
 70
     1
102
RTVSPropertyOp14
 70
     1
102
RTVSPropertyOp15
 70
     1
102
RTVSPropertyOp16
 70
     1
102
RTVSPropertyOp17
 70
     1
102
RTVSPropertyOp18
 70
     1
102
RTVSPropertyOp19
 70
     1
102
RTVSPropertyOp20
 70
     1
102
RTVSPropertyOp21
 70
     1
102
RTVSPropertyOp22
 70
     1
102
RTVSPropertyOp23
 70
     1
102
RTVSPropertyOp24
 70
     1
102
RTVSPropertyOp25
 70
     1
102
RTVSPropertyOp26
 70
     1
102
RTVSPropertyOp27
 70
     1
102
RTVSPropertyOp28
 70
     1
102
RTVSPropertyOp29
 70
     1
102
RTVSPropertyOp30
 70
     1
102
RTVSPropertyOp31
 70
     1
102
RTVSPropertyOp32
 70
     1
  0
XRECORD
  5
6B55
102
{ACAD_REACTORS
330
6B54
102
}
330
6B54
100
AcDbXrecord
280
     1
102
RTVSPropertyOp0
 70
     1
102
RTVSPropertyOp1
 70
     1
102
RTVSPropertyOp2
 70
     1
102
RTVSPropertyOp3
 70
     1
102
RTVSPropertyOp4
 70
     1
102
RTVSPropertyOp5
 70
     1
102
RTVSPropertyOp6
 70
     1
102
RTVSPropertyOp7
 70
     1
102
RTVSPropertyOp8
 70
     1
102
RTVSPropertyOp9
 70
     1
102
RTVSPropertyOp10
 70
     1
102
RTVSPropertyOp11
 70
     1
102
RTVSPropertyOp12
 70
     1
102
RTVSPropertyOp13
 70
     1
102
RTVSPropertyOp14
 70
     1
102
RTVSPropertyOp15
 70
     1
102
RTVSPropertyOp16
 70
     1
102
RTVSPropertyOp17
 70
     1
102
RTVSPropertyOp18
 70
     1
102
RTVSPropertyOp19
 70
     1
102
RTVSPropertyOp20
 70
     1
102
RTVSPropertyOp21
 70
     1
102
RTVSPropertyOp22
 70
     1
102
RTVSPropertyOp23
 70
     1
102
RTVSPropertyOp24
 70
     1
102
RTVSPropertyOp25
 70
     1
102
RTVSPropertyOp26
 70
     1
102
RTVSPropertyOp27
 70
     1
102
RTVSPropertyOp28
 70
     1
102
RTVSPropertyOp29
 70
     1
102
RTVSPropertyOp30
 70
     1
102
RTVSPropertyOp31
 70
     1
102
RTVSPropertyOp32
 70
     1
  0
XRECORD
  5
6B47
102
{ACAD_REACTORS
330
6B46
102
}
330
6B46
100
AcDbXrecord
280
     1
102
RTVSPropertyOp0
 70
     1
102
RTVSPropertyOp1
 70
     1
102
RTVSPropertyOp2
 70
     1
102
RTVSPropertyOp3
 70
     1
102
RTVSPropertyOp4
 70
     1
102
RTVSPropertyOp5
 70
     1
102
RTVSPropertyOp6
 70
     1
102
RTVSPropertyOp7
 70
     1
102
RTVSPropertyOp8
 70
     1
102
RTVSPropertyOp9
 70
     1
102
RTVSPropertyOp10
 70
     1
102
RTVSPropertyOp11
 70
     1
102
RTVSPropertyOp12
 70
     1
102
RTVSPropertyOp13
 70
     1
102
RTVSPropertyOp14
 70
     1
102
RTVSPropertyOp15
 70
     1
102
RTVSPropertyOp16
 70
     1
102
RTVSPropertyOp17
 70
     1
102
RTVSPropertyOp18
 70
     1
102
RTVSPropertyOp19
 70
     1
102
RTVSPropertyOp20
 70
     1
102
RTVSPropertyOp21
 70
     1
102
RTVSPropertyOp22
 70
     1
102
RTVSPropertyOp23
 70
     1
102
RTVSPropertyOp24
 70
     1
102
RTVSPropertyOp25
 70
     1
102
RTVSPropertyOp26
 70
     1
102
RTVSPropertyOp27
 70
     1
102
RTVSPropertyOp28
 70
     1
102
RTVSPropertyOp29
 70
     1
102
RTVSPropertyOp30
 70
     1
102
RTVSPropertyOp31
 70
     1
102
RTVSPropertyOp32
 70
     1
  0
XRECORD
  5
6B4B
102
{ACAD_REACTORS
330
6B4A
102
}
330
6B4A
100
AcDbXrecord
280
     1
102
RTVSPropertyOp0
 70
     1
102
RTVSPropertyOp1
 70
     1
102
RTVSPropertyOp2
 70
     1
102
RTVSPropertyOp3
 70
     1
102
RTVSPropertyOp4
 70
     1
102
RTVSPropertyOp5
 70
     1
102
RTVSPropertyOp6
 70
     1
102
RTVSPropertyOp7
 70
     1
102
RTVSPropertyOp8
 70
     1
102
RTVSPropertyOp9
 70
     1
102
RTVSPropertyOp10
 70
     1
102
RTVSPropertyOp11
 70
     1
102
RTVSPropertyOp12
 70
     1
102
RTVSPropertyOp13
 70
     1
102
RTVSPropertyOp14
 70
     1
102
RTVSPropertyOp15
 70
     1
102
RTVSPropertyOp16
 70
     1
102
RTVSPropertyOp17
 70
     1
102
RTVSPropertyOp18
 70
     1
102
RTVSPropertyOp19
 70
     1
102
RTVSPropertyOp20
 70
     1
102
RTVSPropertyOp21
 70
     1
102
RTVSPropertyOp22
 70
     1
102
RTVSPropertyOp23
 70
     1
102
RTVSPropertyOp24
 70
     1
102
RTVSPropertyOp25
 70
     1
102
RTVSPropertyOp26
 70
     1
102
RTVSPropertyOp27
 70
     1
102
RTVSPropertyOp28
 70
     1
102
RTVSPropertyOp29
 70
     1
102
RTVSPropertyOp30
 70
     1
102
RTVSPropertyOp31
 70
     1
102
RTVSPropertyOp32
 70
     1
  0
XRECORD
  5
6B65
102
{ACAD_REACTORS
330
6B64
102
}
330
6B64
100
AcDbXrecord
280
     1
102
RTVSPropertyOp0
 70
     0
102
RTVSPropertyOp1
 70
     0
102
RTVSPropertyOp2
 70
     0
102
RTVSPropertyOp3
 70
     0
102
RTVSPropertyOp4
 70
     0
102
RTVSPropertyOp5
 70
     0
102
RTVSPropertyOp6
 70
     0
102
RTVSPropertyOp7
 70
     0
102
RTVSPropertyOp8
 70
     0
102
RTVSPropertyOp9
 70
     0
102
RTVSPropertyOp10
 70
     0
102
RTVSPropertyOp11
 70
     0
102
RTVSPropertyOp12
 70
     0
102
RTVSPropertyOp13
 70
     0
102
RTVSPropertyOp14
 70
     2
102
RTVSPropertyOp15
 70
     0
102
RTVSPropertyOp16
 70
     0
102
RTVSPropertyOp17
 70
     0
102
RTVSPropertyOp18
 70
     0
102
RTVSPropertyOp19
 70
     0
102
RTVSPropertyOp20
 70
     0
102
RTVSPropertyOp21
 70
     0
102
RTVSPropertyOp22
 70
     0
102
RTVSPropertyOp23
 70
     0
102
RTVSPropertyOp24
 70
     0
102
RTVSPropertyOp25
 70
     0
102
RTVSPropertyOp26
 70
     0
102
RTVSPropertyOp27
 70
     0
102
RTVSPropertyOp28
 70
     1
102
RTVSPropertyOp29
 70
     1
102
RTVSPropertyOp30
 70
     1
102
RTVSPropertyOp31
 70
     1
102
RTVSPropertyOp32
 70
     1
  0
XRECORD
  5
6B53
102
{ACAD_REACTORS
330
6B52
102
}
330
6B52
100
AcDbXrecord
280
     1
102
RTVSPropertyOp0
 70
     1
102
RTVSPropertyOp1
 70
     1
102
RTVSPropertyOp2
 70
     1
102
RTVSPropertyOp3
 70
     1
102
RTVSPropertyOp4
 70
     1
102
RTVSPropertyOp5
 70
     1
102
RTVSPropertyOp6
 70
     1
102
RTVSPropertyOp7
 70
     1
102
RTVSPropertyOp8
 70
     1
102
RTVSPropertyOp9
 70
     1
102
RTVSPropertyOp10
 70
     1
102
RTVSPropertyOp11
 70
     1
102
RTVSPropertyOp12
 70
     1
102
RTVSPropertyOp13
 70
     1
102
RTVSPropertyOp14
 70
     1
102
RTVSPropertyOp15
 70
     1
102
RTVSPropertyOp16
 70
     1
102
RTVSPropertyOp17
 70
     1
102
RTVSPropertyOp18
 70
     1
102
RTVSPropertyOp19
 70
     1
102
RTVSPropertyOp20
 70
     1
102
RTVSPropertyOp21
 70
     1
102
RTVSPropertyOp22
 70
     1
102
RTVSPropertyOp23
 70
     1
102
RTVSPropertyOp24
 70
     1
102
RTVSPropertyOp25
 70
     1
102
RTVSPropertyOp26
 70
     1
102
RTVSPropertyOp27
 70
     1
102
RTVSPropertyOp28
 70
     1
102
RTVSPropertyOp29
 70
     1
102
RTVSPropertyOp30
 70
     1
102
RTVSPropertyOp31
 70
     1
102
RTVSPropertyOp32
 70
     1
  0
XRECORD
  5
6B37
102
{ACAD_REACTORS
330
6B36
102
}
330
6B36
100
AcDbXrecord
280
     1
102
RTVSPropertyOp0
 70
     1
102
RTVSPropertyOp1
 70
     1
102
RTVSPropertyOp2
 70
     1
102
RTVSPropertyOp3
 70
     1
102
RTVSPropertyOp4
 70
     1
102
RTVSPropertyOp5
 70
     1
102
RTVSPropertyOp6
 70
     1
102
RTVSPropertyOp7
 70
     1
102
RTVSPropertyOp8
 70
     1
102
RTVSPropertyOp9
 70
     1
102
RTVSPropertyOp10
 70
     1
102
RTVSPropertyOp11
 70
     1
102
RTVSPropertyOp12
 70
     1
102
RTVSPropertyOp13
 70
     1
102
RTVSPropertyOp14
 70
     1
102
RTVSPropertyOp15
 70
     1
102
RTVSPropertyOp16
 70
     1
102
RTVSPropertyOp17
 70
     1
102
RTVSPropertyOp18
 70
     1
102
RTVSPropertyOp19
 70
     1
102
RTVSPropertyOp20
 70
     1
102
RTVSPropertyOp21
 70
     1
102
RTVSPropertyOp22
 70
     1
102
RTVSPropertyOp23
 70
     1
102
RTVSPropertyOp24
 70
     1
102
RTVSPropertyOp25
 70
     1
102
RTVSPropertyOp26
 70
     1
102
RTVSPropertyOp27
 70
     1
102
RTVSPropertyOp28
 70
     1
102
RTVSPropertyOp29
 70
     1
102
RTVSPropertyOp30
 70
     1
102
RTVSPropertyOp31
 70
     1
102
RTVSPropertyOp32
 70
     1
  0
XRECORD
  5
6B39
102
{ACAD_REACTORS
330
6B38
102
}
330
6B38
100
AcDbXrecord
280
     1
102
RTVSPropertyOp0
 70
     1
102
RTVSPropertyOp1
 70
     1
102
RTVSPropertyOp2
 70
     1
102
RTVSPropertyOp3
 70
     1
102
RTVSPropertyOp4
 70
     1
102
RTVSPropertyOp5
 70
     1
102
RTVSPropertyOp6
 70
     1
102
RTVSPropertyOp7
 70
     1
102
RTVSPropertyOp8
 70
     1
102
RTVSPropertyOp9
 70
     1
102
RTVSPropertyOp10
 70
     1
102
RTVSPropertyOp11
 70
     1
102
RTVSPropertyOp12
 70
     1
102
RTVSPropertyOp13
 70
     1
102
RTVSPropertyOp14
 70
     1
102
RTVSPropertyOp15
 70
     1
102
RTVSPropertyOp16
 70
     1
102
RTVSPropertyOp17
 70
     1
102
RTVSPropertyOp18
 70
     1
102
RTVSPropertyOp19
 70
     1
102
RTVSPropertyOp20
 70
     1
102
RTVSPropertyOp21
 70
     1
102
RTVSPropertyOp22
 70
     1
102
RTVSPropertyOp23
 70
     1
102
RTVSPropertyOp24
 70
     1
102
RTVSPropertyOp25
 70
     1
102
RTVSPropertyOp26
 70
     1
102
RTVSPropertyOp27
 70
     1
102
RTVSPropertyOp28
 70
     1
102
RTVSPropertyOp29
 70
     1
102
RTVSPropertyOp30
 70
     1
102
RTVSPropertyOp31
 70
     1
102
RTVSPropertyOp32
 70
     1
  0
XRECORD
  5
6B3B
102
{ACAD_REACTORS
330
6B3A
102
}
330
6B3A
100
AcDbXrecord
280
     1
102
RTVSPropertyOp0
 70
     1
102
RTVSPropertyOp1
 70
     1
102
RTVSPropertyOp2
 70
     1
102
RTVSPropertyOp3
 70
     1
102
RTVSPropertyOp4
 70
     1
102
RTVSPropertyOp5
 70
     1
102
RTVSPropertyOp6
 70
     1
102
RTVSPropertyOp7
 70
     1
102
RTVSPropertyOp8
 70
     1
102
RTVSPropertyOp9
 70
     1
102
RTVSPropertyOp10
 70
     1
102
RTVSPropertyOp11
 70
     1
102
RTVSPropertyOp12
 70
     1
102
RTVSPropertyOp13
 70
     1
102
RTVSPropertyOp14
 70
     1
102
RTVSPropertyOp15
 70
     1
102
RTVSPropertyOp16
 70
     1
102
RTVSPropertyOp17
 70
     1
102
RTVSPropertyOp18
 70
     1
102
RTVSPropertyOp19
 70
     1
102
RTVSPropertyOp20
 70
     1
102
RTVSPropertyOp21
 70
     1
102
RTVSPropertyOp22
 70
     1
102
RTVSPropertyOp23
 70
     1
102
RTVSPropertyOp24
 70
     1
102
RTVSPropertyOp25
 70
     1
102
RTVSPropertyOp26
 70
     1
102
RTVSPropertyOp27
 70
     1
102
RTVSPropertyOp28
 70
     1
102
RTVSPropertyOp29
 70
     1
102
RTVSPropertyOp30
 70
     1
102
RTVSPropertyOp31
 70
     1
102
RTVSPropertyOp32
 70
     1
  0
XRECORD
  5
6B3D
102
{ACAD_REACTORS
330
6B3C
102
}
330
6B3C
100
AcDbXrecord
280
     1
102
RTVSPropertyOp0
 70
     1
102
RTVSPropertyOp1
 70
     1
102
RTVSPropertyOp2
 70
     1
102
RTVSPropertyOp3
 70
     1
102
RTVSPropertyOp4
 70
     1
102
RTVSPropertyOp5
 70
     1
102
RTVSPropertyOp6
 70
     1
102
RTVSPropertyOp7
 70
     1
102
RTVSPropertyOp8
 70
     1
102
RTVSPropertyOp9
 70
     1
102
RTVSPropertyOp10
 70
     1
102
RTVSPropertyOp11
 70
     1
102
RTVSPropertyOp12
 70
     1
102
RTVSPropertyOp13
 70
     1
102
RTVSPropertyOp14
 70
     1
102
RTVSPropertyOp15
 70
     1
102
RTVSPropertyOp16
 70
     1
102
RTVSPropertyOp17
 70
     1
102
RTVSPropertyOp18
 70
     1
102
RTVSPropertyOp19
 70
     1
102
RTVSPropertyOp20
 70
     1
102
RTVSPropertyOp21
 70
     1
102
RTVSPropertyOp22
 70
     1
102
RTVSPropertyOp23
 70
     1
102
RTVSPropertyOp24
 70
     1
102
RTVSPropertyOp25
 70
     1
102
RTVSPropertyOp26
 70
     1
102
RTVSPropertyOp27
 70
     1
102
RTVSPropertyOp28
 70
     1
102
RTVSPropertyOp29
 70
     1
102
RTVSPropertyOp30
 70
     1
102
RTVSPropertyOp31
 70
     1
102
RTVSPropertyOp32
 70
     1
  0
XRECORD
  5
6B45
102
{ACAD_REACTORS
330
6B44
102
}
330
6B44
100
AcDbXrecord
280
     1
102
RTVSPropertyOp0
 70
     1
102
RTVSPropertyOp1
 70
     1
102
RTVSPropertyOp2
 70
     1
102
RTVSPropertyOp3
 70
     1
102
RTVSPropertyOp4
 70
     1
102
RTVSPropertyOp5
 70
     1
102
RTVSPropertyOp6
 70
     1
102
RTVSPropertyOp7
 70
     1
102
RTVSPropertyOp8
 70
     1
102
RTVSPropertyOp9
 70
     1
102
RTVSPropertyOp10
 70
     1
102
RTVSPropertyOp11
 70
     1
102
RTVSPropertyOp12
 70
     1
102
RTVSPropertyOp13
 70
     1
102
RTVSPropertyOp14
 70
     1
102
RTVSPropertyOp15
 70
     1
102
RTVSPropertyOp16
 70
     1
102
RTVSPropertyOp17
 70
     1
102
RTVSPropertyOp18
 70
     1
102
RTVSPropertyOp19
 70
     1
102
RTVSPropertyOp20
 70
     1
102
RTVSPropertyOp21
 70
     1
102
RTVSPropertyOp22
 70
     1
102
RTVSPropertyOp23
 70
     1
102
RTVSPropertyOp24
 70
     1
102
RTVSPropertyOp25
 70
     1
102
RTVSPropertyOp26
 70
     1
102
RTVSPropertyOp27
 70
     1
102
RTVSPropertyOp28
 70
     1
102
RTVSPropertyOp29
 70
     1
102
RTVSPropertyOp30
 70
     1
102
RTVSPropertyOp31
 70
     1
102
RTVSPropertyOp32
 70
     1
  0
XRECORD
  5
6B61
102
{ACAD_REACTORS
330
6B60
102
}
330
6B60
100
AcDbXrecord
280
     1
102
RTVSPropertyOp0
 70
     0
102
RTVSPropertyOp1
 70
     0
102
RTVSPropertyOp2
 70
     0
102
RTVSPropertyOp3
 70
     0
102
RTVSPropertyOp4
 70
     0
102
RTVSPropertyOp5
 70
     0
102
RTVSPropertyOp6
 70
     0
102
RTVSPropertyOp7
 70
     0
102
RTVSPropertyOp8
 70
     0
102
RTVSPropertyOp9
 70
     0
102
RTVSPropertyOp10
 70
     0
102
RTVSPropertyOp11
 70
     0
102
RTVSPropertyOp12
 70
     0
102
RTVSPropertyOp13
 70
     0
102
RTVSPropertyOp14
 70
     2
102
RTVSPropertyOp15
 70
     0
102
RTVSPropertyOp16
 70
     0
102
RTVSPropertyOp17
 70
     0
102
RTVSPropertyOp18
 70
     0
102
RTVSPropertyOp19
 70
     0
102
RTVSPropertyOp20
 70
     0
102
RTVSPropertyOp21
 70
     0
102
RTVSPropertyOp22
 70
     0
102
RTVSPropertyOp23
 70
     0
102
RTVSPropertyOp24
 70
     0
102
RTVSPropertyOp25
 70
     0
102
RTVSPropertyOp26
 70
     0
102
RTVSPropertyOp27
 70
     0
102
RTVSPropertyOp28
 70
     1
102
RTVSPropertyOp29
 70
     1
102
RTVSPropertyOp30
 70
     1
102
RTVSPropertyOp31
 70
     1
102
RTVSPropertyOp32
 70
     1
  0
XRECORD
  5
6B51
102
{ACAD_REACTORS
330
6B50
102
}
330
6B50
100
AcDbXrecord
280
     1
102
RTVSPropertyOp0
 70
     1
102
RTVSPropertyOp1
 70
     1
102
RTVSPropertyOp2
 70
     1
102
RTVSPropertyOp3
 70
     1
102
RTVSPropertyOp4
 70
     1
102
RTVSPropertyOp5
 70
     1
102
RTVSPropertyOp6
 70
     1
102
RTVSPropertyOp7
 70
     1
102
RTVSPropertyOp8
 70
     1
102
RTVSPropertyOp9
 70
     1
102
RTVSPropertyOp10
 70
     1
102
RTVSPropertyOp11
 70
     1
102
RTVSPropertyOp12
 70
     1
102
RTVSPropertyOp13
 70
     1
102
RTVSPropertyOp14
 70
     1
102
RTVSPropertyOp15
 70
     1
102
RTVSPropertyOp16
 70
     1
102
RTVSPropertyOp17
 70
     1
102
RTVSPropertyOp18
 70
     1
102
RTVSPropertyOp19
 70
     1
102
RTVSPropertyOp20
 70
     1
102
RTVSPropertyOp21
 70
     1
102
RTVSPropertyOp22
 70
     1
102
RTVSPropertyOp23
 70
     1
102
RTVSPropertyOp24
 70
     1
102
RTVSPropertyOp25
 70
     1
102
RTVSPropertyOp26
 70
     1
102
RTVSPropertyOp27
 70
     1
102
RTVSPropertyOp28
 70
     1
102
RTVSPropertyOp29
 70
     1
102
RTVSPropertyOp30
 70
     1
102
RTVSPropertyOp31
 70
     1
102
RTVSPropertyOp32
 70
     1
  0
XRECORD
  5
6B63
102
{ACAD_REACTORS
330
6B62
102
}
330
6B62
100
AcDbXrecord
280
     1
102
RTVSPropertyOp0
 70
     0
102
RTVSPropertyOp1
 70
     0
102
RTVSPropertyOp2
 70
     0
102
RTVSPropertyOp3
 70
     0
102
RTVSPropertyOp4
 70
     0
102
RTVSPropertyOp5
 70
     0
102
RTVSPropertyOp6
 70
     0
102
RTVSPropertyOp7
 70
     0
102
RTVSPropertyOp8
 70
     0
102
RTVSPropertyOp9
 70
     0
102
RTVSPropertyOp10
 70
     0
102
RTVSPropertyOp11
 70
     0
102
RTVSPropertyOp12
 70
     0
102
RTVSPropertyOp13
 70
     0
102
RTVSPropertyOp14
 70
     2
102
RTVSPropertyOp15
 70
     0
102
RTVSPropertyOp16
 70
     0
102
RTVSPropertyOp17
 70
     0
102
RTVSPropertyOp18
 70
     0
102
RTVSPropertyOp19
 70
     0
102
RTVSPropertyOp20
 70
     0
102
RTVSPropertyOp21
 70
     0
102
RTVSPropertyOp22
 70
     0
102
RTVSPropertyOp23
 70
     0
102
RTVSPropertyOp24
 70
     0
102
RTVSPropertyOp25
 70
     0
102
RTVSPropertyOp26
 70
     0
102
RTVSPropertyOp27
 70
     0
102
RTVSPropertyOp28
 70
     1
102
RTVSPropertyOp29
 70
     1
102
RTVSPropertyOp30
 70
     1
102
RTVSPropertyOp31
 70
     1
102
RTVSPropertyOp32
 70
     1
  0
XRECORD
  5
6B49
102
{ACAD_REACTORS
330
6B48
102
}
330
6B48
100
AcDbXrecord
280
     1
102
RTVSPropertyOp0
 70
     1
102
RTVSPropertyOp1
 70
     1
102
RTVSPropertyOp2
 70
     1
102
RTVSPropertyOp3
 70
     1
102
RTVSPropertyOp4
 70
     1
102
RTVSPropertyOp5
 70
     1
102
RTVSPropertyOp6
 70
     1
102
RTVSPropertyOp7
 70
     1
102
RTVSPropertyOp8
 70
     1
102
RTVSPropertyOp9
 70
     1
102
RTVSPropertyOp10
 70
     1
102
RTVSPropertyOp11
 70
     1
102
RTVSPropertyOp12
 70
     1
102
RTVSPropertyOp13
 70
     1
102
RTVSPropertyOp14
 70
     1
102
RTVSPropertyOp15
 70
     1
102
RTVSPropertyOp16
 70
     1
102
RTVSPropertyOp17
 70
     1
102
RTVSPropertyOp18
 70
     1
102
RTVSPropertyOp19
 70
     1
102
RTVSPropertyOp20
 70
     1
102
RTVSPropertyOp21
 70
     1
102
RTVSPropertyOp22
 70
     1
102
RTVSPropertyOp23
 70
     1
102
RTVSPropertyOp24
 70
     1
102
RTVSPropertyOp25
 70
     1
102
RTVSPropertyOp26
 70
     1
102
RTVSPropertyOp27
 70
     1
102
RTVSPropertyOp28
 70
     1
102
RTVSPropertyOp29
 70
     1
102
RTVSPropertyOp30
 70
     1
102
RTVSPropertyOp31
 70
     1
102
RTVSPropertyOp32
 70
     1
  0
XRECORD
  5
6B5F
102
{ACAD_REACTORS
330
6B5E
102
}
330
6B5E
100
AcDbXrecord
280
     1
102
RTVSPropertyOp0
 70
     1
102
RTVSPropertyOp1
 70
     1
102
RTVSPropertyOp2
 70
     1
102
RTVSPropertyOp3
 70
     1
102
RTVSPropertyOp4
 70
     1
102
RTVSPropertyOp5
 70
     1
102
RTVSPropertyOp6
 70
     1
102
RTVSPropertyOp7
 70
     1
102
RTVSPropertyOp8
 70
     1
102
RTVSPropertyOp9
 70
     1
102
RTVSPropertyOp10
 70
     1
102
RTVSPropertyOp11
 70
     1
102
RTVSPropertyOp12
 70
     1
102
RTVSPropertyOp13
 70
     1
102
RTVSPropertyOp14
 70
     1
102
RTVSPropertyOp15
 70
     1
102
RTVSPropertyOp16
 70
     1
102
RTVSPropertyOp17
 70
     1
102
RTVSPropertyOp18
 70
     1
102
RTVSPropertyOp19
 70
     1
102
RTVSPropertyOp20
 70
     1
102
RTVSPropertyOp21
 70
     1
102
RTVSPropertyOp22
 70
     1
102
RTVSPropertyOp23
 70
     1
102
RTVSPropertyOp24
 70
     1
102
RTVSPropertyOp25
 70
     1
102
RTVSPropertyOp26
 70
     1
102
RTVSPropertyOp27
 70
     1
102
RTVSPropertyOp28
 70
     1
102
RTVSPropertyOp29
 70
     1
102
RTVSPropertyOp30
 70
     1
102
RTVSPropertyOp31
 70
     1
102
RTVSPropertyOp32
 70
     1
  0
XRECORD
  5
6B5D
102
{ACAD_REACTORS
330
6B5C
102
}
330
6B5C
100
AcDbXrecord
280
     1
102
RTVSPropertyOp0
 70
     1
102
RTVSPropertyOp1
 70
     1
102
RTVSPropertyOp2
 70
     1
102
RTVSPropertyOp3
 70
     1
102
RTVSPropertyOp4
 70
     1
102
RTVSPropertyOp5
 70
     1
102
RTVSPropertyOp6
 70
     1
102
RTVSPropertyOp7
 70
     1
102
RTVSPropertyOp8
 70
     1
102
RTVSPropertyOp9
 70
     1
102
RTVSPropertyOp10
 70
     1
102
RTVSPropertyOp11
 70
     1
102
RTVSPropertyOp12
 70
     1
102
RTVSPropertyOp13
 70
     1
102
RTVSPropertyOp14
 70
     1
102
RTVSPropertyOp15
 70
     1
102
RTVSPropertyOp16
 70
     1
102
RTVSPropertyOp17
 70
     1
102
RTVSPropertyOp18
 70
     1
102
RTVSPropertyOp19
 70
     1
102
RTVSPropertyOp20
 70
     1
102
RTVSPropertyOp21
 70
     1
102
RTVSPropertyOp22
 70
     1
102
RTVSPropertyOp23
 70
     1
102
RTVSPropertyOp24
 70
     1
102
RTVSPropertyOp25
 70
     1
102
RTVSPropertyOp26
 70
     1
102
RTVSPropertyOp27
 70
     1
102
RTVSPropertyOp28
 70
     1
102
RTVSPropertyOp29
 70
     1
102
RTVSPropertyOp30
 70
     1
102
RTVSPropertyOp31
 70
     1
102
RTVSPropertyOp32
 70
     1
  0
XRECORD
  5
6B57
102
{ACAD_REACTORS
330
6B56
102
}
330
6B56
100
AcDbXrecord
280
     1
102
RTVSPropertyOp0
 70
     1
102
RTVSPropertyOp1
 70
     1
102
RTVSPropertyOp2
 70
     1
102
RTVSPropertyOp3
 70
     1
102
RTVSPropertyOp4
 70
     1
102
RTVSPropertyOp5
 70
     1
102
RTVSPropertyOp6
 70
     1
102
RTVSPropertyOp7
 70
     1
102
RTVSPropertyOp8
 70
     1
102
RTVSPropertyOp9
 70
     1
102
RTVSPropertyOp10
 70
     1
102
RTVSPropertyOp11
 70
     1
102
RTVSPropertyOp12
 70
     1
102
RTVSPropertyOp13
 70
     1
102
RTVSPropertyOp14
 70
     1
102
RTVSPropertyOp15
 70
     1
102
RTVSPropertyOp16
 70
     1
102
RTVSPropertyOp17
 70
     1
102
RTVSPropertyOp18
 70
     1
102
RTVSPropertyOp19
 70
     1
102
RTVSPropertyOp20
 70
     1
102
RTVSPropertyOp21
 70
     1
102
RTVSPropertyOp22
 70
     1
102
RTVSPropertyOp23
 70
     1
102
RTVSPropertyOp24
 70
     1
102
RTVSPropertyOp25
 70
     1
102
RTVSPropertyOp26
 70
     1
102
RTVSPropertyOp27
 70
     1
102
RTVSPropertyOp28
 70
     1
102
RTVSPropertyOp29
 70
     1
102
RTVSPropertyOp30
 70
     1
102
RTVSPropertyOp31
 70
     1
102
RTVSPropertyOp32
 70
     1
  0
XRECORD
  5
6B59
102
{ACAD_REACTORS
330
6B58
102
}
330
6B58
100
AcDbXrecord
280
     1
102
RTVSPropertyOp0
 70
     1
102
RTVSPropertyOp1
 70
     1
102
RTVSPropertyOp2
 70
     1
102
RTVSPropertyOp3
 70
     1
102
RTVSPropertyOp4
 70
     1
102
RTVSPropertyOp5
 70
     1
102
RTVSPropertyOp6
 70
     1
102
RTVSPropertyOp7
 70
     1
102
RTVSPropertyOp8
 70
     1
102
RTVSPropertyOp9
 70
     1
102
RTVSPropertyOp10
 70
     1
102
RTVSPropertyOp11
 70
     1
102
RTVSPropertyOp12
 70
     1
102
RTVSPropertyOp13
 70
     1
102
RTVSPropertyOp14
 70
     1
102
RTVSPropertyOp15
 70
     1
102
RTVSPropertyOp16
 70
     1
102
RTVSPropertyOp17
 70
     1
102
RTVSPropertyOp18
 70
     1
102
RTVSPropertyOp19
 70
     1
102
RTVSPropertyOp20
 70
     1
102
RTVSPropertyOp21
 70
     1
102
RTVSPropertyOp22
 70
     1
102
RTVSPropertyOp23
 70
     1
102
RTVSPropertyOp24
 70
     1
102
RTVSPropertyOp25
 70
     1
102
RTVSPropertyOp26
 70
     1
102
RTVSPropertyOp27
 70
     1
102
RTVSPropertyOp28
 70
     1
102
RTVSPropertyOp29
 70
     1
102
RTVSPropertyOp30
 70
     1
102
RTVSPropertyOp31
 70
     1
102
RTVSPropertyOp32
 70
     1
  0
XRECORD
  5
6B4F
102
{ACAD_REACTORS
330
6B4E
102
}
330
6B4E
100
AcDbXrecord
280
     1
102
RTVSPropertyOp0
 70
     1
102
RTVSPropertyOp1
 70
     1
102
RTVSPropertyOp2
 70
     1
102
RTVSPropertyOp3
 70
     1
102
RTVSPropertyOp4
 70
     1
102
RTVSPropertyOp5
 70
     1
102
RTVSPropertyOp6
 70
     1
102
RTVSPropertyOp7
 70
     1
102
RTVSPropertyOp8
 70
     1
102
RTVSPropertyOp9
 70
     1
102
RTVSPropertyOp10
 70
     1
102
RTVSPropertyOp11
 70
     1
102
RTVSPropertyOp12
 70
     1
102
RTVSPropertyOp13
 70
     1
102
RTVSPropertyOp14
 70
     1
102
RTVSPropertyOp15
 70
     1
102
RTVSPropertyOp16
 70
     1
102
RTVSPropertyOp17
 70
     1
102
RTVSPropertyOp18
 70
     1
102
RTVSPropertyOp19
 70
     1
102
RTVSPropertyOp20
 70
     1
102
RTVSPropertyOp21
 70
     1
102
RTVSPropertyOp22
 70
     1
102
RTVSPropertyOp23
 70
     1
102
RTVSPropertyOp24
 70
     1
102
RTVSPropertyOp25
 70
     1
102
RTVSPropertyOp26
 70
     1
102
RTVSPropertyOp27
 70
     1
102
RTVSPropertyOp28
 70
     1
102
RTVSPropertyOp29
 70
     1
102
RTVSPropertyOp30
 70
     1
102
RTVSPropertyOp31
 70
     1
102
RTVSPropertyOp32
 70
     1
  0
XRECORD
  5
6B43
102
{ACAD_REACTORS
330
6B42
102
}
330
6B42
100
AcDbXrecord
280
     1
102
RTVSPropertyOp0
 70
     1
102
RTVSPropertyOp1
 70
     1
102
RTVSPropertyOp2
 70
     1
102
RTVSPropertyOp3
 70
     1
102
RTVSPropertyOp4
 70
     1
102
RTVSPropertyOp5
 70
     1
102
RTVSPropertyOp6
 70
     1
102
RTVSPropertyOp7
 70
     1
102
RTVSPropertyOp8
 70
     1
102
RTVSPropertyOp9
 70
     1
102
RTVSPropertyOp10
 70
     1
102
RTVSPropertyOp11
 70
     1
102
RTVSPropertyOp12
 70
     1
102
RTVSPropertyOp13
 70
     1
102
RTVSPropertyOp14
 70
     1
102
RTVSPropertyOp15
 70
     1
102
RTVSPropertyOp16
 70
     1
102
RTVSPropertyOp17
 70
     1
102
RTVSPropertyOp18
 70
     1
102
RTVSPropertyOp19
 70
     1
102
RTVSPropertyOp20
 70
     1
102
RTVSPropertyOp21
 70
     1
102
RTVSPropertyOp22
 70
     1
102
RTVSPropertyOp23
 70
     1
102
RTVSPropertyOp24
 70
     1
102
RTVSPropertyOp25
 70
     1
102
RTVSPropertyOp26
 70
     1
102
RTVSPropertyOp27
 70
     1
102
RTVSPropertyOp28
 70
     1
102
RTVSPropertyOp29
 70
     1
102
RTVSPropertyOp30
 70
     1
102
RTVSPropertyOp31
 70
     1
102
RTVSPropertyOp32
 70
     1
  0
XRECORD
  5
6B5B
102
{ACAD_REACTORS
330
6B5A
102
}
330
6B5A
100
AcDbXrecord
280
     1
102
RTVSPropertyOp0
 70
     1
102
RTVSPropertyOp1
 70
     1
102
RTVSPropertyOp2
 70
     1
102
RTVSPropertyOp3
 70
     1
102
RTVSPropertyOp4
 70
     1
102
RTVSPropertyOp5
 70
     1
102
RTVSPropertyOp6
 70
     1
102
RTVSPropertyOp7
 70
     1
102
RTVSPropertyOp8
 70
     1
102
RTVSPropertyOp9
 70
     1
102
RTVSPropertyOp10
 70
     1
102
RTVSPropertyOp11
 70
     1
102
RTVSPropertyOp12
 70
     1
102
RTVSPropertyOp13
 70
     1
102
RTVSPropertyOp14
 70
     1
102
RTVSPropertyOp15
 70
     1
102
RTVSPropertyOp16
 70
     1
102
RTVSPropertyOp17
 70
     1
102
RTVSPropertyOp18
 70
     1
102
RTVSPropertyOp19
 70
     1
102
RTVSPropertyOp20
 70
     1
102
RTVSPropertyOp21
 70
     1
102
RTVSPropertyOp22
 70
     1
102
RTVSPropertyOp23
 70
     1
102
RTVSPropertyOp24
 70
     1
102
RTVSPropertyOp25
 70
     1
102
RTVSPropertyOp26
 70
     1
102
RTVSPropertyOp27
 70
     1
102
RTVSPropertyOp28
 70
     1
102
RTVSPropertyOp29
 70
     1
102
RTVSPropertyOp30
 70
     1
102
RTVSPropertyOp31
 70
     1
102
RTVSPropertyOp32
 70
     1
  0
ENDSEC
  0
EOF
