  0
SECTION
  2
HEADER
  9
$ACADVER
  1
AC1015
  9
$ACADMAINTVER
 70
    20
  9
$DWGCODEPAGE
  3
ANSI_1252
  9
$INSBASE
 10
0.0
 20
0.0
 30
0.0
  9
$EXTMIN
 10
0.0
 20
0.0
 30
0.0
  9
$EXTMAX
 10
58.43059373869616
 20
36.19195733340607
 30
0.0
  9
$LIMMIN
 10
0.0
 20
0.0
  9
$LIMMAX
 10
12.0
 20
9.0
  9
$ORTHOMODE
 70
     1
  9
$REGENMODE
 70
     1
  9
$FILLMODE
 70
     1
  9
$QTEXTMODE
 70
     0
  9
$MIRRTEXT
 70
     1
  9
$LTSCALE
 40
0.5
  9
$ATTMODE
 70
     1
  9
$TEXTSIZE
 40
0.25
  9
$TRACEWID
 40
0.05
  9
$TEXTSTYLE
  7
STANDARD
  9
$CLAYER
  8
0
  9
$CELTYPE
  6
BYLAYER
  9
$CECOLOR
 62
   256
  9
$CELTSCALE
 40
1.0
  9
$DISPSILH
 70
     0
  9
$DIMSCALE
 40
1.0
  9
$DIMASZ
 40
0.2
  9
$DIMEXO
 40
0.125
  9
$DIMDLI
 40
0.375
  9
$DIMRND
 40
0.0
  9
$DIMDLE
 40
0.0
  9
$DIMEXE
 40
0.125
  9
$DIMTP
 40
0.0
  9
$DIMTM
 40
0.0
  9
$DIMTXT
 40
0.25
  9
$DIMCEN
 40
0.0
  9
$DIMTSZ
 40
0.0
  9
$DIMTOL
 70
     0
  9
$DIMLIM
 70
     0
  9
$DIMTIH
 70
     0
  9
$DIMTOH
 70
     0
  9
$DIMSE1
 70
     0
  9
$DIMSE2
 70
     0
  9
$DIMTAD
 70
     1
  9
$DIMZIN
 70
     3
  9
$DIMBLK
  1

  9
$DIMASO
 70
     1
  9
$DIMSHO
 70
     1
  9
$DIMPOST
  1

  9
$DIMAPOST
  1

  9
$DIMALT
 70
     0
  9
$DIMALTD
 70
     2
  9
$DIMALTF
 40
25.4
  9
$DIMLFAC
 40
1.0
  9
$DIMTOFL
 70
     0
  9
$DIMTVP
 40
0.0
  9
$DIMTIX
 70
     0
  9
$DIMSOXD
 70
     0
  9
$DIMSAH
 70
     0
  9
$DIMBLK1
  1

  9
$DIMBLK2
  1

  9
$DIMSTYLE
  2
STANDARD
  9
$DIMCLRD
 70
     0
  9
$DIMCLRE
 70
     0
  9
$DIMCLRT
 70
     0
  9
$DIMTFAC
 40
1.0
  9
$DIMGAP
 40
0.125
  9
$DIMJUST
 70
     0
  9
$DIMSD1
 70
     0
  9
$DIMSD2
 70
     0
  9
$DIMTOLJ
 70
     1
  9
$DIMTZIN
 70
     3
  9
$DIMALTZ
 70
     3
  9
$DIMALTTZ
 70
     3
  9
$DIMUPT
 70
     0
  9
$DIMDEC
 70
     5
  9
$DIMTDEC
 70
     5
  9
$DIMALTU
 70
     4
  9
$DIMALTTD
 70
     2
  9
$DIMTXSTY
  7
STANDARD
  9
$DIMAUNIT
 70
     0
  9
$DIMADEC
 70
     0
  9
$DIMALTRND
 40
0.0
  9
$DIMAZIN
 70
     0
  9
$DIMDSEP
 70
    46
  9
$DIMATFIT
 70
     0
  9
$DIMFRAC
 70
     2
  9
$DIMLDRBLK
  1

  9
$DIMLUNIT
 70
     4
  9
$DIMLWD
 70
    -2
  9
$DIMLWE
 70
    -2
  9
$DIMTMOVE
 70
     0
  9
$LUNITS
 70
     2
  9
$LUPREC
 70
     5
  9
$SKETCHINC
 40
0.1
  9
$FILLETRAD
 40
0.0
  9
$AUNITS
 70
     0
  9
$AUPREC
 70
     0
  9
$MENU
  1
ACAD
  9
$ELEVATION
 40
0.0
  9
$PELEVATION
 40
0.0
  9
$THICKNESS
 40
0.0
  9
$LIMCHECK
 70
     0
  9
$CHAMFERA
 40
0.0
  9
$CHAMFERB
 40
0.0
  9
$CHAMFERC
 40
0.0
  9
$CHAMFERD
 40
0.0
  9
$SKPOLY
 70
     0
  9
$TDCREATE
 40
2450777.537570949
  9
$TDUCREATE
 40
2450777.745904282
  9
$TDUPDATE
 40
2457809.450916424
  9
$TDUUPDATE
 40
2457809.659249757
  9
$TDINDWG
 40
0.5356180093
  9
$TDUSRTIMER
 40
0.5356180093
  9
$USRTIMER
 70
     1
  9
$ANGBASE
 50
0.0
  9
$ANGDIR
 70
     0
  9
$PDMODE
 70
     0
  9
$PDSIZE
 40
0.0
  9
$PLINEWID
 40
0.0
  9
$SPLFRAME
 70
     0
  9
$SPLINETYPE
 70
     6
  9
$SPLINESEGS
 70
     8
  9
$HANDSEED
  5
6A16
  9
$SURFTAB1
 70
     6
  9
$SURFTAB2
 70
     6
  9
$SURFTYPE
 70
     6
  9
$SURFU
 70
     6
  9
$SURFV
 70
     6
  9
$UCSBASE
  2

  9
$UCSNAME
  2

  9
$UCSORG
 10
0.0
 20
0.0
 30
0.0
  9
$UCSXDIR
 10
1.0
 20
0.0
 30
0.0
  9
$UCSYDIR
 10
0.0
 20
1.0
 30
0.0
  9
$UCSORTHOREF
  2

  9
$UCSORTHOVIEW
 70
     0
  9
$UCSORGTOP
 10
0.0
 20
0.0
 30
0.0
  9
$UCSORGBOTTOM
 10
0.0
 20
0.0
 30
0.0
  9
$UCSORGLEFT
 10
0.0
 20
0.0
 30
0.0
  9
$UCSORGRIGHT
 10
0.0
 20
0.0
 30
0.0
  9
$UCSORGFRONT
 10
0.0
 20
0.0
 30
0.0
  9
$UCSORGBACK
 10
0.0
 20
0.0
 30
0.0
  9
$PUCSBASE
  2

  9
$PUCSNAME
  2

  9
$PUCSORG
 10
0.0
 20
0.0
 30
0.0
  9
$PUCSXDIR
 10
1.0
 20
0.0
 30
0.0
  9
$PUCSYDIR
 10
0.0
 20
1.0
 30
0.0
  9
$PUCSORTHOREF
  2

  9
$PUCSORTHOVIEW
 70
     0
  9
$PUCSORGTOP
 10
0.0
 20
0.0
 30
0.0
  9
$PUCSORGBOTTOM
 10
0.0
 20
0.0
 30
0.0
  9
$PUCSORGLEFT
 10
0.0
 20
0.0
 30
0.0
  9
$PUCSORGRIGHT
 10
0.0
 20
0.0
 30
0.0
  9
$PUCSORGFRONT
 10
0.0
 20
0.0
 30
0.0
  9
$PUCSORGBACK
 10
0.0
 20
0.0
 30
0.0
  9
$USERI1
 70
     0
  9
$USERI2
 70
     0
  9
$USERI3
 70
     0
  9
$USERI4
 70
     0
  9
$USERI5
 70
     0
  9
$USERR1
 40
0.0
  9
$USERR2
 40
0.0
  9
$USERR3
 40
0.0
  9
$USERR4
 40
0.0
  9
$USERR5
 40
0.0
  9
$WORLDVIEW
 70
     1
  9
$SHADEDGE
 70
     3
  9
$SHADEDIF
 70
    70
  9
$TILEMODE
 70
     1
  9
$MAXACTVP
 70
    16
  9
$PINSBASE
 10
0.0
 20
0.0
 30
0.0
  9
$PLIMCHECK
 70
     0
  9
$PEXTMIN
 10
1.000000000000000E+20
 20
1.000000000000000E+20
 30
1.000000000000000E+20
  9
$PEXTMAX
 10
-1.000000000000000E+20
 20
-1.000000000000000E+20
 30
-1.000000000000000E+20
  9
$PLIMMIN
 10
0.0
 20
0.0
  9
$PLIMMAX
 10
12.0
 20
9.0
  9
$UNITMODE
 70
     0
  9
$VISRETAIN
 70
     0
  9
$PLINEGEN
 70
     0
  9
$PSLTSCALE
 70
     1
  9
$TREEDEPTH
 70
  3020
  9
$CMLSTYLE
  2
STANDARD
  9
$CMLJUST
 70
     0
  9
$CMLSCALE
 40
1.0
  9
$PROXYGRAPHICS
 70
     1
  9
$MEASUREMENT
 70
     0
  9
$CELWEIGHT
370
    -1
  9
$ENDCAPS
280
     0
  9
$JOINSTYLE
280
     0
  9
$LWDISPLAY
290
     0
  9
$INSUNITS
 70
     0
  9
$HYPERLINKBASE
  1

  9
$STYLESHEET
  1
monochrome.ctb
  9
$XEDIT
290
     1
  9
$CEPSNTYPE
380
     0
  9
$PSTYLEMODE
290
     1
  9
$FINGERPRINTGUID
  2
{AFB9463B-F323-4607-850C-DC68DBB64F67}
  9
$VERSIONGUID
  2
{0E6B10A9-8540-4D02-99B8-2E223F153666}
  9
$EXTNAMES
290
     1
  9
$PSVPSCALE
 40
0.0
  9
$OLESTARTUP
290
     0
  0
ENDSEC
  0
SECTION
  2
CLASSES
  0
CLASS
  1
DICTIONARYVAR
  2
AcDbDictionaryVar
  3
ObjectDBX Classes
 90
        0
280
     0
281
     0
  0
CLASS
  1
ACDBDICTIONARYWDFLT
  2
AcDbDictionaryWithDefault
  3
ObjectDBX Classes
 90
        0
280
     0
281
     0
  0
CLASS
  1
ACDBPLACEHOLDER
  2
AcDbPlaceHolder
  3
ObjectDBX Classes
 90
        0
280
     0
281
     0
  0
CLASS
  1
LAYOUT
  2
AcDbLayout
  3
ObjectDBX Classes
 90
        0
280
     0
281
     0
  0
CLASS
  1
MATERIAL
  2
AcDbMaterial
  3
ObjectDBX Classes
 90
     1153
280
     0
281
     0
  0
CLASS
  1
VISUALSTYLE
  2
AcDbVisualStyle
  3
ObjectDBX Classes
 90
     4095
280
     0
281
     0
  0
CLASS
  1
TABLESTYLE
  2
AcDbTableStyle
  3
ObjectDBX Classes
 90
     4095
280
     0
281
     0
  0
CLASS
  1
SCALE
  2
AcDbScale
  3
ObjectDBX Classes
 90
     1153
280
     0
281
     0
  0
CLASS
  1
MLEADERSTYLE
  2
AcDbMLeaderStyle
  3
ACDB_MLEADERSTYLE_CLASS
 90
     4095
280
     0
281
     0
  0
CLASS
  1
SORTENTSTABLE
  2
AcDbSortentsTable
  3
ObjectDBX Classes
 90
        0
280
     0
281
     0
  0
CLASS
  1
CELLSTYLEMAP
  2
AcDbCellStyleMap
  3
ObjectDBX Classes
 90
     1152
280
     0
281
     0
  0
CLASS
  1
EXACXREFPANELOBJECT
  2
ExAcXREFPanelObject
  3
EXAC_ESW
 90
     1025
280
     0
281
     0
  0
CLASS
  1
NPOCOLLECTION
  2
AcDbImpNonPersistentObjectsCollection
  3
ObjectDBX Classes
 90
     1153
280
     0
281
     0
  0
CLASS
  1
FIELD
  2
AcDbField
  3
ObjectDBX Classes
 90
    33920
280
     0
281
     0
  0
CLASS
  1
FIELDLIST
  2
AcDbFieldList
  3
ObjectDBX Classes
 90
     1152
280
     0
281
     0
  0
ENDSEC
  0
SECTION
  2
TABLES
  0
TABLE
  2
VPORT
  5
8
102
{ACAD_XDICTIONARY
360
636C
102
}
330
0
100
AcDbSymbolTable
 70
     1
  0
VPORT
  5
62BA
330
8
100
AcDbSymbolTableRecord
100
AcDbViewportTableRecord
  2
*Active
 70
     0
 10
0.0
 20
0.0
 11
1.0
 21
1.0
 12
58.23951680014427
 22
18.0959790037849
 13
0.0
 23
0.0
 14
1.0
 24
1.0
 15
0.0
 25
0.0
 16
0.0
 26
0.0
 36
1.0
 17
0.0
 27
0.0
 37
0.0
 40
36.44261869448562
 41
3.716019417475727
 42
50.0
 43
0.0
 44
0.0
 50
0.0
 51
0.0
 71
     0
 72
  2000
 73
     1
 74
     0
 75
     0
 76
     0
 77
     0
 78
     0
281
     0
 65
     1
110
0.0
120
0.0
130
0.0
111
1.0
121
0.0
131
0.0
112
0.0
122
1.0
132
0.0
 79
     0
146
0.0
1001
ACAD_NAV_VCDISPLAY
1070
     3
  0
ENDTAB
  0
TABLE
  2
LTYPE
  5
5
330
0
100
AcDbSymbolTable
 70
     3
  0
LTYPE
  5
11
330
5
100
AcDbSymbolTableRecord
100
AcDbLinetypeTableRecord
  2
BYBLOCK
 70
     0
  3

 72
    65
 73
     0
 40
0.0
  0
LTYPE
  5
12
330
5
100
AcDbSymbolTableRecord
100
AcDbLinetypeTableRecord
  2
BYLAYER
 70
     0
  3

 72
    65
 73
     0
 40
0.0
  0
LTYPE
  5
13
330
5
100
AcDbSymbolTableRecord
100
AcDbLinetypeTableRecord
  2
CONTINUOUS
 70
     0
  3
Solid line
 72
    65
 73
     0
 40
0.0
  0
LTYPE
  5
695B
330
5
100
AcDbSymbolTableRecord
100
AcDbLinetypeTableRecord
  2
DASHED
 70
     0
  3
Dashed __ __ __ __ __ __ __ __ __ __ __ __ __ _
 72
    65
 73
     2
 40
0.75
 49
0.5
 74
     0
 49
-0.25
 74
     0
  0
LTYPE
  5
695C
330
5
100
AcDbSymbolTableRecord
100
AcDbLinetypeTableRecord
  2
DOT
 70
     0
  3
Dot . . . . . . . . . . . . . . . . . . . . . .
 72
    65
 73
     2
 40
0.25
 49
0.0
 74
     0
 49
-0.25
 74
     0
  0
ENDTAB
  0
TABLE
  2
LAYER
  5
2
102
{ACAD_XDICTIONARY
360
634B
102
}
330
0
100
AcDbSymbolTable
 70
     8
  0
LAYER
  5
E
102
{ACAD_XDICTIONARY
360
635B
102
}
330
2
100
AcDbSymbolTableRecord
100
AcDbLayerTableRecord
  2
0
 70
     0
 62
     7
  6
CONTINUOUS
370
    -3
390
485B
  0
LAYER
  5
6019
102
{ACAD_XDICTIONARY
360
635D
102
}
330
2
100
AcDbSymbolTableRecord
100
AcDbLayerTableRecord
  2
R-SWTS-DET1
 70
     0
 62
     1
  6
CONTINUOUS
370
    -3
390
485B
  0
LAYER
  5
601A
102
{ACAD_XDICTIONARY
360
635F
102
}
330
2
100
AcDbSymbolTableRecord
100
AcDbLayerTableRecord
  2
PART_NUMBERS
 70
     0
 62
     6
  6
CONTINUOUS
370
    -3
390
485B
  0
LAYER
  5
601B
102
{ACAD_XDICTIONARY
360
6361
102
}
330
2
100
AcDbSymbolTableRecord
100
AcDbLayerTableRecord
  2
R-ANNO-DIMS
 70
     0
 62
     3
  6
CONTINUOUS
370
    -3
390
485B
  0
LAYER
  5
601C
102
{ACAD_XDICTIONARY
360
6363
102
}
330
2
100
AcDbSymbolTableRecord
100
AcDbLayerTableRecord
  2
R-SWTS-DET2
 70
     0
 62
     4
  6
CONTINUOUS
370
    -3
390
485B
  0
LAYER
  5
601D
102
{ACAD_XDICTIONARY
360
6365
102
}
330
2
100
AcDbSymbolTableRecord
100
AcDbLayerTableRecord
  2
R-SWTS-DET3
 70
     0
 62
     5
  6
CONTINUOUS
370
    -3
390
485B
  0
LAYER
  5
63C5
102
{ACAD_XDICTIONARY
360
63C6
102
}
330
2
100
AcDbSymbolTableRecord
100
AcDbLayerTableRecord
  2
TEXT
 70
     0
 62
     3
  6
CONTINUOUS
370
    -3
390
485B
  0
LAYER
  5
695D
330
2
100
AcDbSymbolTableRecord
100
AcDbLayerTableRecord
  2
Kawneer Logo-English
 70
     0
 62
     7
  6
CONTINUOUS
370
    -3
390
485B
1001
AcAecLayerStandard
1000

1000

1001
AcCmTransparency
1071
        0
  0
ENDTAB
  0
TABLE
  2
STYLE
  5
3
330
0
100
AcDbSymbolTable
 70
     1
  0
STYLE
  5
F
330
3
100
AcDbSymbolTableRecord
100
AcDbTextStyleTableRecord
  2
STANDARD
 70
     0
 40
0.0
 41
1.0
 50
0.0
 71
     0
 42
0.25
  3
arial.ttf
  4

1001
ACAD
1000
Arial
1071
       34
  0
ENDTAB
  0
TABLE
  2
VIEW
  5
6
330
0
100
AcDbSymbolTable
 70
     0
  0
ENDTAB
  0
TABLE
  2
UCS
  5
7
330
0
100
AcDbSymbolTable
 70
     0
  0
ENDTAB
  0
TABLE
  2
APPID
  5
9
330
0
100
AcDbSymbolTable
 70
    15
  0
APPID
  5
10
330
9
100
AcDbSymbolTableRecord
100
AcDbRegAppTableRecord
  2
ACAD
 70
     0
  0
APPID
  5
63C9
330
9
100
AcDbSymbolTableRecord
100
AcDbRegAppTableRecord
  2
ACAD_NAV_VCDISPLAY
 70
     0
  0
APPID
  5
695E
330
9
100
AcDbSymbolTableRecord
100
AcDbRegAppTableRecord
  2
ACAD_EXEMPT_FROM_CAD_STANDARDS
 70
     0
  0
APPID
  5
695F
330
9
100
AcDbSymbolTableRecord
100
AcDbRegAppTableRecord
  2
GradientColor1ACI
 70
     0
  0
APPID
  5
6960
330
9
100
AcDbSymbolTableRecord
100
AcDbRegAppTableRecord
  2
GradientColor2ACI
 70
     0
  0
APPID
  5
6961
330
9
100
AcDbSymbolTableRecord
100
AcDbRegAppTableRecord
  2
ACAD_MLEADERVER
 70
     0
  0
APPID
  5
6962
330
9
100
AcDbSymbolTableRecord
100
AcDbRegAppTableRecord
  2
ACAD_PSEXT
 70
     0
  0
APPID
  5
6963
330
9
100
AcDbSymbolTableRecord
100
AcDbRegAppTableRecord
  2
ACAD_DSTYLE_DIMJAG
 70
     0
  0
APPID
  5
6964
330
9
100
AcDbSymbolTableRecord
100
AcDbRegAppTableRecord
  2
ACAD_DSTYLE_DIMTALN
 70
     0
  0
APPID
  5
6965
330
9
100
AcDbSymbolTableRecord
100
AcDbRegAppTableRecord
  2
ACAD_DSTYLE_DIMBREAK
 70
     0
  0
APPID
  5
6966
330
9
100
AcDbSymbolTableRecord
100
AcDbRegAppTableRecord
  2
AcDbDynamicBlockGUID
 70
     0
  0
APPID
  5
6967
330
9
100
AcDbSymbolTableRecord
100
AcDbRegAppTableRecord
  2
ACAUTHENVIRON
 70
     0
  0
APPID
  5
6968
330
9
100
AcDbSymbolTableRecord
100
AcDbRegAppTableRecord
  2
AcDbDynamicBlockTrueName
 70
     0
  0
APPID
  5
6969
330
9
100
AcDbSymbolTableRecord
100
AcDbRegAppTableRecord
  2
AcAecLayerStandard
 70
     0
  0
APPID
  5
696A
330
9
100
AcDbSymbolTableRecord
100
AcDbRegAppTableRecord
  2
AcCmTransparency
 70
     0
  0
ENDTAB
  0
TABLE
  2
DIMSTYLE
  5
A
330
0
100
AcDbSymbolTable
 70
     1
100
AcDbDimStyleTable
 71
     1
340
26C
  0
DIMSTYLE
105
26C
330
A
100
AcDbSymbolTableRecord
100
AcDbDimStyleTableRecord
  2
STANDARD
 70
     0
340
F
  0
ENDTAB
  0
TABLE
  2
BLOCK_RECORD
  5
1
330
0
100
AcDbSymbolTable
 70
     1
  0
BLOCK_RECORD
  5
17
102
{ACAD_XDICTIONARY
360
4A11
102
}
330
1
100
AcDbSymbolTableRecord
100
AcDbBlockTableRecord
  2
*MODEL_SPACE
340
485E
  0
BLOCK_RECORD
  5
14
102
{ACAD_XDICTIONARY
360
4A0F
102
}
330
1
100
AcDbSymbolTableRecord
100
AcDbBlockTableRecord
  2
*PAPER_SPACE
340
485F
  0
BLOCK_RECORD
  5
696D
102
{ACAD_XDICTIONARY
360
6977
102
}
330
1
100
AcDbSymbolTableRecord
100
AcDbBlockTableRecord
  2
Kawneer Logo English
340
0
102
{BLKREFS
331
697B
102
}
1001
ACAD
1000
DesignCenter Data
1002
{
1070
     1
1070
     1
1002
}
  0
ENDTAB
  0
ENDSEC
  0
SECTION
  2
BLOCKS
  0
BLOCK
  5
3C
330
17
100
AcDbEntity
  8
0
100
AcDbBlockBegin
  2
*MODEL_SPACE
 70
     0
 10
0.0
 20
0.0
 30
0.0
  3
*MODEL_SPACE
  1

  0
ENDBLK
  5
3D
330
17
100
AcDbEntity
  8
0
100
AcDbBlockEnd
  0
BLOCK
  5
3A
330
14
100
AcDbEntity
 67
     1
  8
0
100
AcDbBlockBegin
  2
*PAPER_SPACE
 70
     0
 10
0.0
 20
0.0
 30
0.0
  3
*PAPER_SPACE
  1

  0
ENDBLK
  5
3B
330
14
100
AcDbEntity
 67
     1
  8
0
100
AcDbBlockEnd
  0
BLOCK
  5
6979
330
696D
100
AcDbEntity
  8
0
100
AcDbBlockBegin
  2
Kawneer Logo English
 70
     0
 10
0.0
 20
0.0
 30
0.0
  3
Kawneer Logo English
  1

  0
MTEXT
  5
696E
102
{ACAD_XDICTIONARY
360
69D6
102
}
330
696D
100
AcDbEntity
  8
Kawneer Logo-English
100
AcDbMText
 10
1.510096758583198
 20
0.0372523876656778
 30
0.0
 40
0.036
 41
0.6125900866323382
 71
     3
 72
     5
  1
{\fArial TUR|b0|i0|c0|p34;\T1.05;AN ARCONIC COMPANY}
 73
     1
 44
1.0
1001
ACAD
1000
ACAD_MTEXT_COLUMN_INFO_BEGIN
1070
    75
1070
     2
1070
    79
1070
     0
1070
    76
1070
     1
1070
    78
1070
     0
1070
    48
1040
0.6125900866323382
1070
    49
1040
1.0
1070
    50
1070
     1
1040
0.0
1000
ACAD_MTEXT_COLUMN_INFO_END
1000
MTEXTBEGIN
1070
    73
1070
     1
1070
    44
1040
1.0
1070
    74
1070
     0
1000
MTEXTEND
  0
HATCH
  5
696F
330
696D
100
AcDbEntity
  8
Kawneer Logo-English
100
AcDbHatch
 10
0.0
 20
0.0
 30
0.0
210
0.0
220
0.0
230
1.0
  2
SOLID
 70
     1
 71
     0
 91
        1
 92
        1
 93
       81
 72
     1
 10
0.2706169776412204
 20
0.0336337282279411
 11
0.2687512969786691
 21
0.0350329887248546
 72
     1
 10
0.2687512969786696
 20
0.0350329887248547
 11
0.2633408230572721
 21
0.039137486182467
 72
     1
 10
0.2633408230572729
 20
0.0391374861824669
 11
0.2550385441089194
 21
0.0453875164020133
 72
     1
 10
0.2550385441089191
 20
0.0453875164020132
 11
0.2442175962661241
 21
0.053596511317238
 72
     1
 10
0.2442175962661235
 20
0.0535965113172379
 11
0.2314376837276472
 21
0.0632980507625037
 72
     1
 10
0.2314376837276479
 20
0.0632980507625037
 11
0.2172585106922595
 21
0.0741189986052996
 72
     1
 10
0.2172585106922598
 20
0.0741189986052996
 11
0.2019599292593419
 21
0.0856862187131167
 72
     1
 10
0.201959929259341
 20
0.0856862187131167
 11
0.1862882116939105
 21
0.0976265749534437
 72
     1
 10
0.1862882116939102
 20
0.0976265749534437
 11
0.1706164941284813
 21
0.1095669311937706
 72
     1
 10
0.1706164941284811
 20
0.1095669311937709
 11
0.1553179126955632
 21
0.1211341513015875
 72
     1
 10
0.1553179126955642
 20
0.1211341513015876
 11
0.1411387396601757
 21
0.131955099144384
 72
     1
 10
0.1411387396601755
 20
0.1319550991443839
 11
0.1284521111548274
 21
0.141749922622777
 72
     1
 10
0.1284521111548278
 20
0.1417499226227768
 11
0.117631163312031
 21
0.1499589175380016
 72
     1
 10
0.1176311633120304
 20
0.1499589175380017
 11
0.1094221683968068
 21
0.1563022317906752
 72
     1
 10
0.1094221683968062
 20
0.1563022317906754
 11
0.1041049785085351
 21
0.1604067292482882
 72
     1
 10
0.1041049785085351
 20
0.1604067292482878
 11
0.1023325818791119
 21
0.1618992737783286
 72
     1
 10
0.1023325818791116
 20
0.1618992737783289
 11
0.1043848306079176
 21
0.1636716704077524
 72
     1
 10
0.1043848306079194
 20
0.1636716704077524
 11
0.1100751566286996
 21
0.1683358720641301
 72
     1
 10
0.1100751566286986
 20
0.1683358720641301
 11
0.1189371397758159
 21
0.1757053106812067
 72
     1
 10
0.1189371397758161
 20
0.1757053106812067
 11
0.1304110758505067
 21
0.1851269980270901
 72
     1
 10
0.1304110758505059
 20
0.1851269980270902
 11
0.1439372606540007
 21
0.1963210820023967
 72
     1
 10
0.1439372606540017
 20
0.1963210820023967
 11
0.1589559899875385
 21
0.2087278584083611
 72
     1
 10
0.1589559899875379
 20
0.2087278584083611
 11
0.1750941277186041
 21
0.2220674751456017
 72
     1
 10
0.1750941277186047
 20
0.2220674751456017
 11
0.19169868561531
 21
0.2358735120484796
 72
     1
 10
0.1916986856153105
 20
0.2358735120484796
 11
0.208303243512014
 21
0.2495862649182301
 72
     1
 10
0.2083032435120131
 20
0.2495862649182304
 11
0.2244413812430811
 21
0.2628325976223432
 72
     1
 10
0.2244413812430812
 20
0.2628325976223429
 11
0.239460110576618
 21
0.2753326580614352
 72
     1
 10
0.2394601105766174
 20
0.2753326580614351
 11
0.2529862953801122
 21
0.2864334580036143
 72
     1
 10
0.2529862953801132
 20
0.2864334580036143
 11
0.2643669474216756
 21
0.2958551453494973
 72
     1
 10
0.2643669474216757
 20
0.2958551453494973
 11
0.2731356465356649
 21
0.3031312999334466
 72
     1
 10
0.273135646535664
 20
0.3031312999334466
 11
0.2788259725564443
 21
0.3077955015898243
 72
     1
 10
0.278825972556445
 20
0.3077955015898246
 11
0.2807849372521245
 21
0.3094746141861208
 72
     1
 10
0.2807849372521249
 20
0.3094746141861205
 11
0.2798520969208501
 21
0.3094746141861205
 72
     1
 10
0.2798520969208496
 20
0.3094746141861205
 11
0.2769602918938953
 21
0.3095678982192478
 72
     1
 10
0.2769602918938943
 20
0.3095678982192481
 11
0.2724826583037715
 21
0.3095678982192481
 72
     1
 10
0.2724826583037729
 20
0.3095678982192481
 11
0.2666057642167363
 21
0.3095678982192481
 72
     1
 10
0.266605764216735
 20
0.3095678982192481
 11
0.2597027457652953
 21
0.3095678982192481
 72
     1
 10
0.2597027457652956
 20
0.3095678982192481
 11
0.2519601710157094
 21
0.3095678982192481
 72
     1
 10
0.2519601710157104
 20
0.3095678982192481
 11
0.2437511761004851
 21
0.3095678982192481
 72
     1
 10
0.243751176100484
 20
0.3095678982192481
 11
0.2351690450527495
 21
0.3095678982192481
 72
     1
 10
0.2351690450527495
 20
0.3095678982192481
 11
0.2266801980381413
 21
0.3095678982192481
 72
     1
 10
0.2266801980381423
 20
0.3095678982192481
 11
0.2183779190897905
 21
0.3094746141861208
 72
     1
 10
0.2183779190897899
 20
0.3094746141861205
 11
0.2106353443402037
 21
0.3094746141861205
 72
     1
 10
0.2106353443402029
 20
0.3094746141861205
 11
0.2037323258887632
 21
0.3094746141861205
 72
     1
 10
0.203732325888764
 20
0.3094746141861205
 11
0.1978554318017273
 21
0.3094746141861205
 72
     1
 10
0.1978554318017278
 20
0.3094746141861205
 11
0.1932845141784786
 21
0.3094746141861205
 72
     1
 10
0.1932845141784787
 20
0.3094746141861205
 11
0.1903927091515244
 21
0.3094746141861205
 72
     1
 10
0.1903927091515234
 20
0.3094746141861205
 11
0.1893665847871204
 21
0.3094746141861205
 72
     1
 10
0.1893665847871206
 20
0.3094746141861205
 11
0.1879673242902067
 21
0.3077955015898243
 72
     1
 10
0.1879673242902076
 20
0.3077955015898246
 11
0.1841426789319786
 21
0.3030380159003196
 72
     1
 10
0.1841426789319787
 20
0.3030380159003192
 11
0.1780792167786874
 21
0.29576186131637
 72
     1
 10
0.1780792167786873
 20
0.29576186131637
 11
0.170243357995973
 21
0.2862468899373593
 72
     1
 10
0.170243357995973
 20
0.2862468899373593
 11
0.1610082387163447
 21
0.2750528059620528
 72
     1
 10
0.1610082387163438
 20
0.2750528059620528
 11
0.1507469950723126
 21
0.2624594614898328
 72
     1
 10
0.1507469950723133
 20
0.2624594614898328
 11
0.1396461951301336
 21
0.2491198447525922
 72
     1
 10
0.1396461951301333
 20
0.2491198447525922
 11
0.1282655430885727
 21
0.2352205238165866
 72
     1
 10
0.1282655430885726
 20
0.2352205238165868
 11
0.1168848910470102
 21
0.2214144869137089
 72
     1
 10
0.1168848910470102
 20
0.2214144869137087
 11
0.1058773751379587
 21
0.2079815861433408
 72
     1
 10
0.105877375137958
 20
0.2079815861433408
 11
0.0955228474608004
 21
0.1954815257042486
 72
     1
 10
0.0955228474608019
 20
0.1954815257042488
 11
0.0862877281811736
 21
0.1842874417289424
 72
     1
 10
0.0862877281811727
 20
0.1842874417289424
 11
0.0784518693984583
 21
0.1747724703499316
 72
     1
 10
0.0784518693984584
 20
0.1747724703499314
 11
0.0723884072451672
 21
0.1674963157659821
 72
     1
 10
0.0723884072451671
 20
0.1674963157659822
 11
0.0685637618869363
 21
0.1627388300764767
 72
     1
 10
0.0685637618869364
 20
0.1627388300764767
 11
0.0671645013900242
 21
0.1611530015133082
 72
     1
 10
0.0671645013900251
 20
0.1611530015133082
 11
0.0680040576881734
 21
0.1596604569832674
 72
     1
 10
0.0680040576881726
 20
0.1596604569832674
 11
0.0704294425494878
 21
0.1556492435587824
 72
     1
 10
0.0704294425494871
 20
0.1556492435587824
 11
0.0742540879077179
 21
0.1493059293061089
 72
     1
 10
0.0742540879077192
 20
0.1493059293061089
 11
0.0791048576303511
 21
0.1411902184240116
 72
     1
 10
0.0791048576303508
 20
0.1411902184240116
 11
0.0848884676842594
 21
0.1314886789787458
 72
     1
 10
0.0848884676842596
 20
0.1314886789787459
 11
0.0913250659700619
 21
0.1207610151690772
 72
     1
 10
0.0913250659700613
 20
0.1207610151690775
 11
0.0982280844214992
 21
0.1091937950612604
 72
     1
 10
0.0982280844214985
 20
0.1091937950612603
 11
0.1053176709391927
 21
0.0973467228540611
 72
     1
 10
0.105317670939193
 20
0.0973467228540612
 11
0.1124072574568872
 21
0.0854996506468619
 72
     1
 10
0.1124072574568871
 20
0.0854996506468617
 11
0.1193102759083267
 21
0.0739324305390446
 72
     1
 10
0.1193102759083278
 20
0.0739324305390448
 11
0.1257468741941283
 21
0.0632047667293762
 72
     1
 10
0.1257468741941277
 20
0.063204766729376
 11
0.1315304842480362
 21
0.0535032272841102
 72
     1
 10
0.1315304842480365
 20
0.0535032272841104
 11
0.1363812539706702
 21
0.0453875164020132
 72
     1
 10
0.1363812539706699
 20
0.0453875164020132
 11
0.1402058993288989
 21
0.0391374861824667
 72
     1
 10
0.1402058993288988
 20
0.0391374861824669
 11
0.1426312841902157
 21
0.0350329887248546
 72
     1
 10
0.1426312841902164
 20
0.0350329887248547
 11
0.1434708404883648
 21
0.0336337282279412
 72
     1
 10
0.143470840488364
 20
0.0336337282279411
 11
0.2706169776412211
 21
0.0336337282279411
 97
        0
 75
     0
 76
     1
 98
        1
 10
-0.3743130907707726
 20
-0.2500502867693841
1001
ACAD
1010
0.0
1020
0.0
1030
0.0
  0
HATCH
  5
6970
330
696D
100
AcDbEntity
  8
Kawneer Logo-English
100
AcDbHatch
 10
0.0
 20
0.0
 30
0.0
210
0.0
220
0.0
230
1.0
  2
SOLID
 70
     1
 71
     0
 91
        1
 92
        1
 93
       18
 72
     1
 10
0.0001865656044393
 20
0.2563959993365415
 11
-0.0000000024618153
 21
0.113671428651383
 72
     1
 10
-0.0000000024618159
 20
0.1136714286513832
 11
0.0012126899688416
 21
0.1152572572145516
 72
     1
 10
0.0012126899688421
 20
0.1152572572145516
 11
0.0045709151614355
 21
0.1197348908046738
 72
     1
 10
0.004570915161435
 20
0.119734890804674
 11
0.0098881050497044
 21
0.1268244773223682
 72
     1
 10
0.0098881050497044
 20
0.1268244773223682
 11
0.0166978394680158
 21
0.1359663125688683
 72
     1
 10
0.016697839468016
 20
0.1359663125688683
 11
0.0248135503501131
 21
0.1467872604116651
 72
     1
 10
0.024813550350113
 20
0.1467872604116652
 11
0.0338621015634867
 21
0.1588209006851195
 72
     1
 10
0.0338621015634872
 20
0.1588209006851194
 11
0.0434703569756247
 21
0.1716940972567221
 72
     1
 10
0.0434703569756247
 20
0.1716940972567224
 11
0.0534517485202732
 21
0.1850337139939626
 72
     1
 10
0.0534517485202724
 20
0.1850337139939624
 11
0.0634331400649208
 21
0.1983733307312025
 72
     1
 10
0.0634331400649222
 20
0.1983733307312024
 11
0.0730413954770597
 21
0.2112465273028051
 72
     1
 10
0.0730413954770595
 20
0.2112465273028053
 11
0.0820899466904331
 21
0.2233734516093873
 72
     1
 10
0.0820899466904321
 20
0.2233734516093873
 11
0.0902056575725293
 21
0.2341943994521837
 72
     1
 10
0.0902056575725308
 20
0.2341943994521837
 11
0.0970153919908422
 21
0.2433362346986839
 72
     1
 10
0.0970153919908405
 20
0.2433362346986839
 11
0.1022392978459834
 21
0.2503325371832507
 72
     1
 10
0.1022392978459843
 20
0.2503325371832508
 11
0.1056908070717041
 21
0.2549034548065008
 72
     1
 10
0.1056908070717046
 20
0.254903454806501
 11
0.1069034995023621
 21
0.2564892833696694
 72
     1
 10
0.1069034995023625
 20
0.2564892833696695
 11
0.0001865656044399
 21
0.2563959993365418
 97
        0
 75
     0
 76
     1
 98
        1
 10
-0.3743130907707726
 20
-0.2500502867693841
1001
ACAD
1010
0.0
1020
0.0
1030
0.0
  0
HATCH
  5
6971
330
696D
100
AcDbEntity
  8
Kawneer Logo-English
100
AcDbHatch
 10
0.0
 20
0.0
 30
0.0
210
0.0
220
0.0
230
1.0
  2
SOLID
 70
     1
 71
     0
 91
        2
 92
       16
 93
       76
 72
     1
 10
1.358402087941634
 20
0.1650709309046659
 11
1.358402087941634
 21
0.16796273593162
 72
     1
 10
1.358402087941634
 20
0.1679627359316202
 11
1.358402087941634
 21
0.1729067896873803
 72
     1
 10
1.358402087941634
 20
0.1729067896873803
 11
1.358402087941634
 21
0.1791568199069267
 72
     1
 10
1.358402087941634
 20
0.1791568199069267
 11
1.358402087941634
 21
0.1861531223914932
 72
     1
 10
1.358402087941634
 20
0.186153122391493
 11
1.358402087941634
 21
0.1931494248760595
 72
     1
 10
1.358402087941634
 20
0.1931494248760596
 11
1.358402087941634
 21
0.1994927391287338
 72
     1
 10
1.358402087941634
 20
0.1994927391287336
 11
1.358402087941634
 21
0.2044367928844937
 72
     1
 10
1.358402087941634
 20
0.2044367928844937
 11
1.358402087941634
 21
0.2072353138783208
 72
     1
 10
1.358402087941634
 20
0.2072353138783208
 11
1.359894632471676
 21
0.2072353138783208
 72
     1
 10
1.359894632471676
 20
0.2072353138783208
 11
1.362693153465502
 21
0.2072353138783208
 72
     1
 10
1.362693153465502
 20
0.2072353138783208
 11
1.366424514790605
 21
0.2072353138783208
 72
     1
 10
1.366424514790606
 20
0.2072353138783208
 11
1.371088716446983
 21
0.2072353138783208
 72
     1
 10
1.371088716446982
 20
0.2072353138783208
 11
1.376405906335254
 21
0.2072353138783208
 72
     1
 10
1.376405906335254
 20
0.2072353138783208
 11
1.382282800422289
 21
0.2072353138783208
 72
     1
 10
1.38228280042229
 20
0.2072353138783208
 11
1.388346262575581
 21
0.2072353138783208
 72
     1
 10
1.388346262575579
 20
0.2072353138783208
 11
1.394596292795125
 21
0.2072353138783208
 72
     1
 10
1.394596292795125
 20
0.2072353138783208
 11
1.400753038981545
 21
0.2072353138783208
 72
     1
 10
1.400753038981546
 20
0.2072353138783208
 11
1.406723217101709
 21
0.2072353138783208
 72
     1
 10
1.406723217101708
 20
0.2072353138783208
 11
1.412320259089362
 21
0.2072353138783208
 72
     1
 10
1.412320259089362
 20
0.2072353138783208
 11
1.417264312845122
 21
0.2072353138783208
 72
     1
 10
1.417264312845123
 20
0.2072353138783208
 11
1.421368810302735
 21
0.2072353138783208
 72
     1
 10
1.421368810302734
 20
0.2072353138783208
 11
1.424540467429071
 21
0.2072353138783208
 72
     1
 10
1.424540467429072
 20
0.2072353138783208
 11
1.426592716157878
 21
0.2072353138783208
 72
     1
 10
1.426592716157878
 20
0.2072353138783208
 11
1.427338988422898
 21
0.2072353138783208
 72
     1
 10
1.427338988422898
 20
0.2072353138783208
 11
1.430977065714873
 21
0.207142029845193
 72
     1
 10
1.430977065714872
 20
0.207142029845193
 11
1.434335290907465
 21
0.2068621777458102
 72
     1
 10
1.434335290907465
 20
0.2068621777458102
 11
1.435921119470633
 21
0.2066756096795552
 72
     1
 10
1.435921119470633
 20
0.206675609679555
 11
1.437413664000673
 21
0.2063957575801723
 72
     1
 10
1.437413664000674
 20
0.2063957575801723
 11
1.438906208530714
 21
0.2061159054807895
 72
     1
 10
1.438906208530714
 20
0.2061159054807898
 11
1.440398753060756
 21
0.2056494853151523
 72
     1
 10
1.440398753060756
 20
0.2056494853151521
 11
1.441704729524542
 21
0.2050897811163865
 72
     1
 10
1.441704729524542
 20
0.2050897811163866
 11
1.443010705988328
 21
0.204530076917621
 72
     1
 10
1.443010705988329
 20
0.204530076917621
 11
1.444223398418986
 21
0.2036905206194736
 72
     1
 10
1.444223398418985
 20
0.2036905206194736
 11
1.445436090849643
 21
0.2028509643213252
 72
     1
 10
1.445436090849643
 20
0.2028509643213252
 11
1.446555499247174
 21
0.2018248399569224
 72
     1
 10
1.446555499247173
 20
0.2018248399569223
 11
1.447581623611576
 21
0.2007054315593917
 72
     1
 10
1.447581623611578
 20
0.2007054315593915
 11
1.448607747975981
 21
0.1993061710624781
 72
     1
 10
1.448607747975981
 20
0.1993061710624781
 11
1.449540588307258
 21
0.1978136265324374
 72
     1
 10
1.449540588307256
 20
0.1978136265324373
 11
1.450380144605403
 21
0.1961345139361415
 72
     1
 10
1.450380144605404
 20
0.1961345139361415
 11
1.451126416870426
 21
0.1944554013398453
 72
     1
 10
1.451126416870426
 20
0.1944554013398454
 11
1.451592837036063
 21
0.1929628568098046
 72
     1
 10
1.451592837036062
 20
0.1929628568098046
 11
1.451965973168573
 21
0.1913770282466361
 72
     1
 10
1.451965973168574
 20
0.1913770282466361
 11
1.452245825267955
 21
0.1899777677497231
 72
     1
 10
1.452245825267954
 20
0.1899777677497231
 11
1.452432393334211
 21
0.188671791285937
 72
     1
 10
1.452432393334211
 20
0.1886717912859369
 11
1.452432393334211
 21
0.1874590988552789
 72
     1
 10
1.452432393334211
 20
0.1874590988552789
 11
1.452525677367338
 21
0.1863396904577482
 72
     1
 10
1.452525677367337
 20
0.1863396904577481
 11
1.452432393334211
 21
0.1844740097951972
 72
     1
 10
1.452432393334211
 20
0.1844740097951974
 11
1.452245825267955
 21
0.1827948971989012
 72
     1
 10
1.452245825267954
 20
0.1827948971989009
 11
1.451872689135445
 21
0.1810225005694773
 72
     1
 10
1.451872689135446
 20
0.1810225005694774
 11
1.451406268969809
 21
0.1794366720063093
 72
     1
 10
1.451406268969809
 20
0.1794366720063094
 11
1.450846564771043
 21
0.1779441274762682
 72
     1
 10
1.450846564771041
 20
0.1779441274762681
 11
1.450100292506021
 21
0.1764515829462274
 72
     1
 10
1.450100292506023
 20
0.1764515829462275
 11
1.449260736207875
 21
0.1750523224493141
 72
     1
 10
1.449260736207873
 20
0.1750523224493139
 11
1.448327895876597
 21
0.1737463459855283
 72
     1
 10
1.448327895876596
 20
0.1737463459855281
 11
1.44702191941281
 21
0.1723470854886151
 72
     1
 10
1.447021919412811
 20
0.1723470854886151
 11
1.445715942949025
 21
0.1711343930579568
 72
     1
 10
1.445715942949026
 20
0.1711343930579568
 11
1.444316682452114
 21
0.1700149846604262
 72
     1
 10
1.444316682452114
 20
0.1700149846604259
 11
1.442824137922072
 21
0.168988860296023
 72
     1
 10
1.442824137922072
 20
0.168988860296023
 11
1.441238309358904
 21
0.1682425880310024
 72
     1
 10
1.441238309358902
 20
0.1682425880310024
 11
1.439559196762608
 21
0.1674963157659821
 72
     1
 10
1.439559196762608
 20
0.1674963157659822
 11
1.437880084166311
 21
0.1669366115672166
 72
     1
 10
1.437880084166311
 20
0.1669366115672167
 11
1.436107687536888
 21
0.1664701914015788
 72
     1
 10
1.436107687536888
 20
0.1664701914015789
 11
1.434242006874337
 21
0.166003771235941
 72
     1
 10
1.434242006874337
 20
0.1660037712359412
 11
1.432376326211786
 21
0.1657239191365588
 72
     1
 10
1.432376326211785
 20
0.1657239191365585
 11
1.430417361516107
 21
0.1655373510703035
 72
     1
 10
1.430417361516108
 20
0.1655373510703037
 11
1.428458396820429
 21
0.1653507830040482
 72
     1
 10
1.428458396820428
 20
0.1653507830040482
 11
1.424353899362817
 21
0.1651642149377932
 72
     1
 10
1.424353899362817
 20
0.1651642149377932
 11
1.420156117872077
 21
0.1650709309046658
 72
     1
 10
1.420156117872076
 20
0.1650709309046659
 11
1.41773073301076
 21
0.1650709309046659
 72
     1
 10
1.417730733010761
 20
0.1650709309046659
 11
1.411107566658704
 21
0.1650709309046659
 72
     1
 10
1.411107566658702
 20
0.1650709309046659
 11
1.401779163345947
 21
0.1650709309046659
 72
     1
 10
1.401779163345949
 20
0.1650709309046659
 11
1.390958215503152
 21
0.1650709309046659
 72
     1
 10
1.390958215503152
 20
0.1650709309046659
 11
1.379950699594101
 21
0.1650709309046659
 72
     1
 10
1.379950699594099
 20
0.1650709309046659
 11
1.369969308049451
 21
0.1650709309046659
 72
     1
 10
1.369969308049451
 20
0.1650709309046659
 11
1.362320017332992
 21
0.1650709309046659
 72
     1
 10
1.362320017332992
 20
0.1650709309046659
 11
1.358402087941635
 21
0.1650709309046659
 97
        0
 92
        1
 93
      107
 72
     1
 10
1.443756978253348
 20
0.1485596570410883
 11
1.446928635379685
 21
0.1492126452729816
 72
     1
 10
1.446928635379685
 20
0.1492126452729817
 11
1.449540588307256
 21
0.1498656335048746
 72
     1
 10
1.449540588307256
 20
0.1498656335048745
 11
1.451872689135445
 21
0.1506119057698948
 72
     1
 10
1.451872689135446
 20
0.1506119057698946
 11
1.45401822189738
 21
0.1514514620680426
 72
     1
 10
1.45401822189738
 20
0.1514514620680425
 11
1.455883902559929
 21
0.1521977343330632
 72
     1
 10
1.455883902559929
 20
0.1521977343330631
 11
1.457563015156225
 21
0.1530372906312111
 72
     1
 10
1.457563015156225
 20
0.1530372906312111
 11
1.459148843719394
 21
0.1539701309624869
 72
     1
 10
1.459148843719394
 20
0.1539701309624866
 11
1.460641388249434
 21
0.1549029712937624
 72
     1
 10
1.460641388249434
 20
0.1549029712937622
 11
1.462133932779476
 21
0.155835811625038
 72
     1
 10
1.462133932779476
 20
0.155835811625038
 11
1.463439909243262
 21
0.1568619359894408
 72
     1
 10
1.463439909243262
 20
0.1568619359894408
 11
1.464745885707048
 21
0.1579813443869714
 72
     1
 10
1.464745885707047
 20
0.1579813443869716
 11
1.465865294104579
 21
0.1591007527845022
 72
     1
 10
1.465865294104579
 20
0.1591007527845025
 11
1.466984702502109
 21
0.1602201611820331
 72
     1
 10
1.466984702502108
 20
0.1602201611820328
 11
1.468010826866511
 21
0.1613395695795634
 72
     1
 10
1.468010826866511
 20
0.1613395695795637
 11
1.468943667197788
 21
0.1625522620102216
 72
     1
 10
1.468943667197788
 20
0.1625522620102216
 11
1.469876507529063
 21
0.1636716704077522
 72
     1
 10
1.469876507529063
 20
0.1636716704077524
 11
1.470622779794084
 21
0.1648843628384107
 72
     1
 10
1.470622779794084
 20
0.1648843628384107
 11
1.471462336092232
 21
0.1661903393021964
 72
     1
 10
1.471462336092232
 20
0.1661903393021967
 11
1.472115324324125
 21
0.1674030317328546
 72
     1
 10
1.472115324324124
 20
0.1674030317328546
 11
1.472768312556016
 21
0.1686157241635125
 72
     1
 10
1.472768312556017
 20
0.1686157241635125
 11
1.473328016754783
 21
0.1699217006272986
 72
     1
 10
1.473328016754782
 20
0.1699217006272989
 11
1.47379443692042
 21
0.1711343930579568
 72
     1
 10
1.47379443692042
 20
0.1711343930579568
 11
1.474260857086057
 21
0.1724403695217425
 72
     1
 10
1.474260857086058
 20
0.1724403695217424
 11
1.474727277251697
 21
0.1736530619524008
 72
     1
 10
1.474727277251697
 20
0.173653061952401
 11
1.475380265483589
 21
0.1760784468137175
 72
     1
 10
1.475380265483588
 20
0.1760784468137173
 11
1.475846685649225
 21
0.1785038316750338
 72
     1
 10
1.475846685649226
 20
0.1785038316750335
 11
1.476219821781737
 21
0.1808359325032223
 72
     1
 10
1.476219821781738
 20
0.1808359325032223
 11
1.47649967388112
 21
0.1830747492982838
 72
     1
 10
1.47649967388112
 20
0.1830747492982838
 11
1.476592957914248
 21
0.1851269980270901
 72
     1
 10
1.476592957914248
 20
0.1851269980270902
 11
1.476686241947374
 21
0.1870859627227688
 72
     1
 10
1.476686241947375
 20
0.1870859627227687
 11
1.476592957914249
 21
0.1888583593521923
 72
     1
 10
1.476592957914248
 20
0.1888583593521922
 11
1.476499673881119
 21
0.1906307559816158
 72
     1
 10
1.47649967388112
 20
0.1906307559816159
 11
1.476406389847991
 21
0.1924031526110394
 72
     1
 10
1.476406389847991
 20
0.1924031526110394
 11
1.476126537748608
 21
0.1940822652073352
 72
     1
 10
1.476126537748608
 20
0.1940822652073352
 11
1.475846685649226
 21
0.195761377803631
 72
     1
 10
1.475846685649226
 20
0.1957613778036309
 11
1.475566833549843
 21
0.1974404903999272
 72
     1
 10
1.475566833549843
 20
0.1974404903999272
 11
1.475100413384206
 21
0.1990263189630953
 72
     1
 10
1.475100413384205
 20
0.1990263189630952
 11
1.474633993218568
 21
0.2006121475262637
 72
     1
 10
1.474633993218568
 20
0.2006121475262639
 11
1.47416757305293
 21
0.2021046920563051
 72
     1
 10
1.474167573052932
 20
0.2021046920563049
 11
1.473514584821038
 21
0.2035972365863457
 72
     1
 10
1.473514584821037
 20
0.2035972365863459
 11
1.472954880622271
 21
0.2050897811163867
 72
     1
 10
1.472954880622272
 20
0.2050897811163866
 11
1.472208608357252
 21
0.2064890416133
 72
     1
 10
1.472208608357252
 20
0.2064890416133001
 11
1.471462336092232
 21
0.2078883021102135
 72
     1
 10
1.471462336092232
 20
0.2078883021102136
 11
1.470622779794083
 21
0.2091942785739993
 72
     1
 10
1.470622779794084
 20
0.2091942785739991
 11
1.469783223495935
 21
0.2105002550377848
 72
     1
 10
1.469783223495934
 20
0.2105002550377851
 11
1.468850383164659
 21
0.2118062315015707
 72
     1
 10
1.468850383164661
 20
0.2118062315015709
 11
1.467917542833386
 21
0.2130189239322288
 72
     1
 10
1.467917542833385
 20
0.2130189239322289
 11
1.466891418468982
 21
0.2141383323297595
 72
     1
 10
1.466891418468982
 20
0.2141383323297595
 11
1.465772010071451
 21
0.2153510247604178
 72
     1
 10
1.46577201007145
 20
0.215351024760418
 11
1.464652601673919
 21
0.2163771491248209
 72
     1
 10
1.46465260167392
 20
0.2163771491248209
 11
1.463533193276389
 21
0.2174032734892238
 72
     1
 10
1.463533193276389
 20
0.2174032734892238
 11
1.462227216812603
 21
0.2184293978536266
 72
     1
 10
1.462227216812602
 20
0.2184293978536266
 11
1.461014524381945
 21
0.2193622381849024
 72
     1
 10
1.461014524381946
 20
0.2193622381849023
 11
1.459615263885032
 21
0.2202950785161781
 72
     1
 10
1.459615263885031
 20
0.2202950785161782
 11
1.458309287421245
 21
0.2211346348143262
 72
     1
 10
1.458309287421246
 20
0.221134634814326
 11
1.456816742891206
 21
0.221974191112474
 72
     1
 10
1.456816742891206
 20
0.2219741911124738
 11
1.455417482394292
 21
0.2227204633774945
 72
     1
 10
1.455417482394291
 20
0.2227204633774944
 11
1.453831653831122
 21
0.2233734516093874
 72
     1
 10
1.453831653831123
 20
0.2233734516093873
 11
1.452339109301082
 21
0.2240264398412803
 72
     1
 10
1.452339109301082
 20
0.2240264398412803
 11
1.450659996704785
 21
0.2245861440400459
 72
     1
 10
1.450659996704787
 20
0.2245861440400457
 11
1.44907416814162
 21
0.2251458482388108
 72
     1
 10
1.449074168141619
 20
0.2251458482388109
 11
1.447301771512194
 21
0.2256122684044489
 72
     1
 10
1.447301771512194
 20
0.2256122684044488
 11
1.445249522783388
 21
0.2261719726032139
 72
     1
 10
1.445249522783388
 20
0.226171972603214
 11
1.44329055808771
 21
0.2265451087357246
 72
     1
 10
1.443290558087712
 20
0.2265451087357244
 11
1.441145025325778
 21
0.2269182448682345
 72
     1
 10
1.441145025325776
 20
0.2269182448682345
 11
1.438906208530714
 21
0.2271980969676173
 72
     1
 10
1.438906208530714
 20
0.2271980969676173
 11
1.436387539636271
 21
0.2273846650338724
 72
     1
 10
1.436387539636271
 20
0.2273846650338724
 11
1.433495734609316
 21
0.2275712331001274
 72
     1
 10
1.433495734609317
 20
0.2275712331001274
 11
1.430044225383597
 21
0.2276645171332552
 72
     1
 10
1.430044225383597
 20
0.2276645171332549
 11
1.42612629599224
 21
0.2277578011663822
 72
     1
 10
1.42612629599224
 20
0.2277578011663825
 11
1.426033011959112
 21
0.2277578011663825
 72
     1
 10
1.426033011959111
 20
0.2277578011663825
 11
1.33489451159349
 21
0.2277578011663825
 72
     1
 10
1.334894511593491
 20
0.2277578011663825
 11
1.334894511593491
 21
0.0926825211976832
 72
     1
 10
1.334894511593491
 20
0.0926825211976832
 11
1.358588656007891
 21
0.0926825211976832
 72
     1
 10
1.358588656007891
 20
0.0926825211976832
 11
1.358588656007891
 21
0.0947347699264896
 72
     1
 10
1.358588656007891
 20
0.0947347699264896
 11
1.358588656007891
 21
0.1001452438478876
 72
     1
 10
1.358588656007891
 20
0.1001452438478875
 11
1.358588656007891
 21
0.1079811026306024
 72
     1
 10
1.358588656007891
 20
0.1079811026306024
 11
1.358588656007891
 21
0.1170296538439752
 72
     1
 10
1.358588656007891
 20
0.1170296538439753
 11
1.358588656007891
 21
0.1262647731236032
 72
     1
 10
1.358588656007891
 20
0.1262647731236031
 11
1.358588656007891
 21
0.1347536201382103
 72
     1
 10
1.358588656007891
 20
0.1347536201382104
 11
1.358588656007891
 21
0.1412835024571394
 72
     1
 10
1.358588656007891
 20
0.1412835024571393
 11
1.358588656007891
 21
0.1448282957159864
 72
     1
 10
1.358588656007891
 20
0.1448282957159865
 11
1.362320017332992
 21
0.1448282957159865
 72
     1
 10
1.362320017332992
 20
0.1448282957159865
 11
1.369409603850688
 21
0.1448282957159865
 72
     1
 10
1.369409603850688
 20
0.1448282957159865
 11
1.378738007163443
 21
0.1448282957159865
 72
     1
 10
1.378738007163443
 20
0.1448282957159865
 11
1.388999250807475
 21
0.1448282957159865
 72
     1
 10
1.388999250807473
 20
0.1448282957159865
 11
1.399260494451505
 21
0.1448282957159865
 72
     1
 10
1.399260494451506
 20
0.1448282957159865
 11
1.408215761631749
 21
0.1448282957159865
 72
     1
 10
1.408215761631748
 20
0.1448282957159865
 11
1.414745643950677
 21
0.1448282957159865
 72
     1
 10
1.414745643950678
 20
0.1448282957159865
 11
1.41773073301076
 21
0.1448282957159865
 72
     1
 10
1.417730733010761
 20
0.1448282957159865
 11
1.420062833838949
 21
0.1420297747221594
 72
     1
 10
1.420062833838949
 20
0.1420297747221597
 11
1.425193455660966
 21
0.1359663125688683
 72
     1
 10
1.425193455660965
 20
0.1359663125688683
 11
1.432283042178659
 21
0.1275707495873888
 72
     1
 10
1.432283042178659
 20
0.1275707495873886
 11
1.440305469027628
 21
0.1180557782083779
 72
     1
 10
1.440305469027629
 20
0.1180557782083781
 11
1.448234611843471
 21
0.1087273748956225
 72
     1
 10
1.448234611843471
 20
0.1087273748956225
 11
1.455044346261782
 21
0.1006116640135252
 72
     1
 10
1.455044346261782
 20
0.1006116640135252
 11
1.459895115984414
 21
0.0948280539596167
 72
     1
 10
1.459895115984414
 20
0.0948280539596169
 11
1.461760796646965
 21
0.0926825211976832
 72
     1
 10
1.461760796646967
 20
0.0926825211976832
 11
1.49254452757906
 21
0.0926825211976832
 72
     1
 10
1.492544527579059
 20
0.0926825211976832
 11
1.490678846916508
 21
0.0948280539596169
 72
     1
 10
1.490678846916508
 20
0.0948280539596169
 11
1.48564150912762
 21
0.100518379980398
 72
     1
 10
1.48564150912762
 20
0.1005183799803981
 11
1.478458638576797
 21
0.1088206589287502
 72
     1
 10
1.478458638576798
 20
0.1088206589287502
 11
1.470063075595318
 21
0.1183356303077609
 72
     1
 10
1.470063075595317
 20
0.118335630307761
 11
1.461480944547582
 21
0.1282237378192818
 72
     1
 10
1.461480944547582
 20
0.1282237378192818
 11
1.453551801731739
 21
0.1372722890326546
 72
     1
 10
1.45355180173174
 20
0.1372722890326546
 11
1.447395055545323
 21
0.1444551595834761
 72
     1
 10
1.447395055545323
 20
0.1444551595834759
 11
1.443756978253349
 21
0.1485596570410882
 97
        0
 75
     0
 76
     1
 98
        1
 10
-0.3743130907707726
 20
-0.2500502867693841
1001
ACAD
1010
0.0
1020
0.0
1030
0.0
  0
HATCH
  5
6972
330
696D
100
AcDbEntity
  8
Kawneer Logo-English
100
AcDbHatch
 10
0.0
 20
0.0
 30
0.0
210
0.0
220
0.0
230
1.0
  2
SOLID
 70
     1
 71
     0
 91
        1
 92
        1
 93
       87
 72
     1
 10
1.205602841678699
 20
0.1525708704655737
 11
1.207468522341251
 21
0.1525708704655737
 72
     1
 10
1.207468522341252
 20
0.1525708704655737
 11
1.211199883666355
 21
0.1525708704655737
 72
     1
 10
1.211199883666355
 20
0.1525708704655737
 11
1.216517073554626
 21
0.1525708704655737
 72
     1
 10
1.216517073554626
 20
0.1525708704655737
 11
1.223046955873555
 21
0.1525708704655737
 72
     1
 10
1.223046955873553
 20
0.1525708704655737
 11
1.230602962556885
 21
0.1525708704655737
 72
     1
 10
1.230602962556885
 20
0.1525708704655737
 11
1.238998525538365
 21
0.1525708704655737
 72
     1
 10
1.238998525538365
 20
0.1525708704655737
 11
1.247767224652354
 21
0.1525708704655737
 72
     1
 10
1.247767224652355
 20
0.1525708704655737
 11
1.256815775865728
 21
0.1525708704655737
 72
     1
 10
1.256815775865729
 20
0.1525708704655737
 11
1.265771043045974
 21
0.1525708704655737
 72
     1
 10
1.265771043045973
 20
0.1525708704655737
 11
1.274446458126836
 21
0.1525708704655737
 72
     1
 10
1.274446458126837
 20
0.1525708704655737
 11
1.282562169008935
 21
0.1525708704655737
 72
     1
 10
1.282562169008935
 20
0.1525708704655737
 11
1.289745039559756
 21
0.1525708704655737
 72
     1
 10
1.289745039559755
 20
0.1525708704655737
 11
1.295808501713046
 21
0.1525708704655737
 72
     1
 10
1.295808501713046
 20
0.1525708704655737
 11
1.300472703369423
 21
0.1525708704655737
 72
     1
 10
1.300472703369423
 20
0.1525708704655737
 11
1.303457792429505
 21
0.1525708704655737
 72
     1
 10
1.303457792429505
 20
0.1525708704655737
 11
1.304483916793908
 21
0.1525708704655737
 72
     1
 10
1.304483916793908
 20
0.1525708704655737
 11
1.304483916793908
 21
0.1730000737205081
 72
     1
 10
1.304483916793908
 20
0.1730000737205078
 11
1.303457792429505
 21
0.1730000737205078
 72
     1
 10
1.303457792429505
 20
0.1730000737205078
 11
1.300472703369423
 21
0.1730000737205078
 72
     1
 10
1.300472703369423
 20
0.1730000737205078
 11
1.295808501713045
 21
0.1730000737205078
 72
     1
 10
1.295808501713046
 20
0.1730000737205078
 11
1.289745039559754
 21
0.1730000737205078
 72
     1
 10
1.289745039559755
 20
0.1730000737205078
 11
1.282562169008934
 21
0.1730000737205078
 72
     1
 10
1.282562169008935
 20
0.1730000737205078
 11
1.274446458126837
 21
0.1730000737205078
 72
     1
 10
1.274446458126837
 20
0.1730000737205078
 11
1.265771043045975
 21
0.1730000737205078
 72
     1
 10
1.265771043045973
 20
0.1730000737205078
 11
1.256815775865728
 21
0.1730000737205078
 72
     1
 10
1.256815775865729
 20
0.1730000737205078
 11
1.247767224652355
 21
0.1730000737205078
 72
     1
 10
1.247767224652355
 20
0.1730000737205078
 11
1.238998525538365
 21
0.1730000737205078
 72
     1
 10
1.238998525538365
 20
0.1730000737205078
 11
1.230602962556885
 21
0.1730000737205078
 72
     1
 10
1.230602962556885
 20
0.1730000737205078
 11
1.223046955873553
 21
0.1730000737205078
 72
     1
 10
1.223046955873553
 20
0.1730000737205078
 11
1.216517073554625
 21
0.1730000737205078
 72
     1
 10
1.216517073554626
 20
0.1730000737205078
 11
1.211199883666355
 21
0.1730000737205078
 72
     1
 10
1.211199883666355
 20
0.1730000737205078
 11
1.207468522341252
 21
0.1730000737205078
 72
     1
 10
1.207468522341252
 20
0.1730000737205078
 11
1.205602841678701
 21
0.1730000737205078
 72
     1
 10
1.205602841678699
 20
0.1730000737205078
 11
1.205602841678699
 21
0.1754254585818243
 72
     1
 10
1.205602841678699
 20
0.1754254585818245
 11
1.205602841678699
 21
0.1794366720063095
 72
     1
 10
1.205602841678699
 20
0.1794366720063094
 11
1.205602841678699
 21
0.1843807257620694
 72
     1
 10
1.205602841678699
 20
0.1843807257620694
 11
1.205602841678699
 21
0.1898844837165951
 72
     1
 10
1.205602841678699
 20
0.1898844837165951
 11
1.205602841678699
 21
0.1952949576379935
 72
     1
 10
1.205602841678699
 20
0.1952949576379937
 11
1.205602841678699
 21
0.2003322954268815
 72
     1
 10
1.205602841678699
 20
0.2003322954268814
 11
1.205602841678699
 21
0.2042502248182386
 72
     1
 10
1.205602841678699
 20
0.2042502248182386
 11
1.205602841678699
 21
0.206675609679555
 72
     1
 10
1.205602841678699
 20
0.206675609679555
 11
1.207468522341251
 21
0.206675609679555
 72
     1
 10
1.207468522341252
 20
0.206675609679555
 11
1.211293167699483
 21
0.206675609679555
 72
     1
 10
1.211293167699483
 20
0.206675609679555
 11
1.21670364162088
 21
0.206675609679555
 72
     1
 10
1.216703641620879
 20
0.206675609679555
 11
1.223420092006063
 21
0.206675609679555
 72
     1
 10
1.223420092006064
 20
0.206675609679555
 11
1.231255950788778
 21
0.206675609679555
 72
     1
 10
1.231255950788778
 20
0.206675609679555
 11
1.239744797803386
 21
0.206675609679555
 72
     1
 10
1.239744797803385
 20
0.206675609679555
 11
1.248886633049885
 21
0.206675609679555
 72
     1
 10
1.248886633049885
 20
0.206675609679555
 11
1.258121752329513
 21
0.206675609679555
 72
     1
 10
1.258121752329514
 20
0.206675609679555
 11
1.267356871609143
 21
0.206675609679555
 72
     1
 10
1.267356871609142
 20
0.206675609679555
 11
1.276218854756259
 21
0.206675609679555
 72
     1
 10
1.276218854756259
 20
0.206675609679555
 11
1.284521133704611
 21
0.206675609679555
 72
     1
 10
1.284521133704611
 20
0.206675609679555
 11
1.291890572321688
 21
0.206675609679555
 72
     1
 10
1.291890572321688
 20
0.206675609679555
 11
1.298140602541234
 21
0.206675609679555
 72
     1
 10
1.298140602541234
 20
0.206675609679555
 11
1.30289808823074
 21
0.206675609679555
 72
     1
 10
1.30289808823074
 20
0.206675609679555
 11
1.305976461323949
 21
0.206675609679555
 72
     1
 10
1.305976461323949
 20
0.206675609679555
 11
1.30709586972148
 21
0.206675609679555
 72
     1
 10
1.307095869721479
 20
0.206675609679555
 11
1.307095869721479
 21
0.2277578011663822
 72
     1
 10
1.307095869721479
 20
0.2277578011663825
 11
1.304577200827036
 21
0.2277578011663825
 72
     1
 10
1.304577200827037
 20
0.2277578011663825
 11
1.182188549363684
 21
0.2277578011663825
 72
     1
 10
1.182188549363684
 20
0.2277578011663825
 11
1.182188549363684
 21
0.0926825211976832
 72
     1
 10
1.182188549363684
 20
0.0926825211976832
 11
1.311853355410986
 21
0.0926825211976832
 72
     1
 10
1.311853355410985
 20
0.0926825211976832
 11
1.311853355410985
 21
0.113671428651383
 72
     1
 10
1.311853355410985
 20
0.1136714286513832
 11
1.310733947013454
 21
0.1136714286513832
 72
     1
 10
1.310733947013455
 20
0.1136714286513832
 11
1.307469005853991
 21
0.1136714286513832
 72
     1
 10
1.307469005853991
 20
0.1136714286513832
 11
1.302431668065102
 21
0.1136714286513832
 72
     1
 10
1.302431668065103
 20
0.1136714286513832
 11
1.295901785746174
 21
0.1136714286513832
 72
     1
 10
1.295901785746174
 20
0.1136714286513832
 11
1.288159210996586
 21
0.1136714286513832
 72
     1
 10
1.288159210996587
 20
0.1136714286513832
 11
1.279483795915724
 21
0.1136714286513832
 72
     1
 10
1.279483795915723
 20
0.1136714286513832
 11
1.270155392602968
 21
0.1136714286513832
 72
     1
 10
1.270155392602969
 20
0.1136714286513832
 11
1.260547137190832
 21
0.1136714286513832
 72
     1
 10
1.260547137190831
 20
0.1136714286513832
 11
1.250752313712437
 21
0.1136714286513832
 72
     1
 10
1.250752313712437
 20
0.1136714286513832
 11
1.241330626366554
 21
0.1136714286513832
 72
     1
 10
1.241330626366555
 20
0.1136714286513832
 11
1.23237535918631
 21
0.1136714286513832
 72
     1
 10
1.232375359186308
 20
0.1136714286513832
 11
1.224166364271082
 21
0.1136714286513832
 72
     1
 10
1.224166364271083
 20
0.1136714286513832
 11
1.217170061786517
 21
0.1136714286513832
 72
     1
 10
1.217170061786517
 20
0.1136714286513832
 11
1.211479735765737
 21
0.1136714286513832
 72
     1
 10
1.211479735765737
 20
0.1136714286513832
 11
1.20756180637438
 21
0.1136714286513832
 72
     1
 10
1.207561806374379
 20
0.1136714286513832
 11
1.2056028416787
 21
0.1136714286513832
 72
     1
 10
1.205602841678699
 20
0.1136714286513832
 11
1.205602841678699
 21
0.1163766656120825
 72
     1
 10
1.205602841678699
 20
0.1163766656120823
 11
1.205602841678699
 21
0.1209475832353323
 72
     1
 10
1.205602841678699
 20
0.1209475832353325
 11
1.205602841678699
 21
0.1267311932892411
 72
     1
 10
1.205602841678699
 20
0.1267311932892408
 11
1.205602841678699
 21
0.1330745075419143
 72
     1
 10
1.205602841678699
 20
0.1330745075419144
 11
1.205602841678699
 21
0.1395111058277156
 72
     1
 10
1.205602841678699
 20
0.1395111058277158
 11
1.205602841678699
 21
0.1452947158816239
 72
     1
 10
1.205602841678699
 20
0.145294715881624
 11
1.205602841678699
 21
0.1498656335048746
 72
     1
 10
1.205602841678699
 20
0.1498656335048745
 11
1.205602841678699
 21
0.1525708704655738
 97
        0
 75
     0
 76
     1
 98
        1
 10
-0.3743130907707726
 20
-0.2500502867693841
1001
ACAD
1010
0.0
1020
0.0
1030
0.0
  0
HATCH
  5
6973
330
696D
100
AcDbEntity
  8
Kawneer Logo-English
100
AcDbHatch
 10
0.0
 20
0.0
 30
0.0
210
0.0
220
0.0
230
1.0
  2
SOLID
 70
     1
 71
     0
 91
        1
 92
        1
 93
       87
 72
     1
 10
1.049352086190046
 20
0.1525708704655737
 11
1.051217766852597
 21
0.1525708704655737
 72
     1
 10
1.051217766852596
 20
0.1525708704655737
 11
1.054949128177699
 21
0.1525708704655737
 72
     1
 10
1.0549491281777
 20
0.1525708704655737
 11
1.060173034032843
 21
0.1525708704655737
 72
     1
 10
1.060173034032843
 20
0.1525708704655737
 11
1.0667962003849
 21
0.1525708704655737
 72
     1
 10
1.0667962003849
 20
0.1525708704655737
 11
1.074352207068231
 21
0.1525708704655737
 72
     1
 10
1.074352207068232
 20
0.1525708704655737
 11
1.082747770049711
 21
0.1525708704655737
 72
     1
 10
1.082747770049711
 20
0.1525708704655737
 11
1.0915164691637
 21
0.1525708704655737
 72
     1
 10
1.091516469163701
 20
0.1525708704655737
 11
1.100565020377075
 21
0.1525708704655737
 72
     1
 10
1.100565020377073
 20
0.1525708704655737
 11
1.109520287557319
 21
0.1525708704655737
 72
     1
 10
1.10952028755732
 20
0.1525708704655737
 11
1.118195702638183
 21
0.1525708704655737
 72
     1
 10
1.118195702638182
 20
0.1525708704655737
 11
1.126218129487151
 21
0.1525708704655737
 72
     1
 10
1.126218129487152
 20
0.1525708704655737
 11
1.133401000037974
 21
0.1525708704655737
 72
     1
 10
1.133401000037974
 20
0.1525708704655737
 11
1.139557746224391
 21
0.1525708704655737
 72
     1
 10
1.139557746224392
 20
0.1525708704655737
 11
1.14422194788077
 21
0.1525708704655737
 72
     1
 10
1.144221947880769
 20
0.1525708704655737
 11
1.147207036940851
 21
0.1525708704655737
 72
     1
 10
1.147207036940852
 20
0.1525708704655737
 11
1.148233161305255
 21
0.1525708704655737
 72
     1
 10
1.148233161305255
 20
0.1525708704655737
 11
1.148233161305255
 21
0.1730000737205081
 72
     1
 10
1.148233161305255
 20
0.1730000737205078
 11
1.147207036940852
 21
0.1730000737205078
 72
     1
 10
1.147207036940852
 20
0.1730000737205078
 11
1.14422194788077
 21
0.1730000737205078
 72
     1
 10
1.144221947880769
 20
0.1730000737205078
 11
1.139557746224391
 21
0.1730000737205078
 72
     1
 10
1.139557746224392
 20
0.1730000737205078
 11
1.133494284071101
 21
0.1730000737205078
 72
     1
 10
1.133494284071101
 20
0.1730000737205078
 11
1.126218129487152
 21
0.1730000737205078
 72
     1
 10
1.126218129487152
 20
0.1730000737205078
 11
1.118195702638183
 21
0.1730000737205078
 72
     1
 10
1.118195702638182
 20
0.1730000737205078
 11
1.10952028755732
 21
0.1730000737205078
 72
     1
 10
1.10952028755732
 20
0.1730000737205078
 11
1.100565020377074
 21
0.1730000737205078
 72
     1
 10
1.100565020377073
 20
0.1730000737205078
 11
1.0915164691637
 21
0.1730000737205078
 72
     1
 10
1.091516469163701
 20
0.1730000737205078
 11
1.082747770049712
 21
0.1730000737205078
 72
     1
 10
1.082747770049711
 20
0.1730000737205078
 11
1.074352207068231
 21
0.1730000737205078
 72
     1
 10
1.074352207068232
 20
0.1730000737205078
 11
1.0667962003849
 21
0.1730000737205078
 72
     1
 10
1.0667962003849
 20
0.1730000737205078
 11
1.060173034032843
 21
0.1730000737205078
 72
     1
 10
1.060173034032843
 20
0.1730000737205078
 11
1.054949128177701
 21
0.1730000737205078
 72
     1
 10
1.0549491281777
 20
0.1730000737205078
 11
1.051217766852597
 21
0.1730000737205078
 72
     1
 10
1.051217766852596
 20
0.1730000737205078
 11
1.049352086190045
 21
0.1730000737205078
 72
     1
 10
1.049352086190046
 20
0.1730000737205078
 11
1.049352086190046
 21
0.1754254585818243
 72
     1
 10
1.049352086190046
 20
0.1754254585818245
 11
1.049352086190046
 21
0.1794366720063095
 72
     1
 10
1.049352086190046
 20
0.1794366720063094
 11
1.049352086190046
 21
0.1843807257620694
 72
     1
 10
1.049352086190046
 20
0.1843807257620694
 11
1.049352086190046
 21
0.1898844837165951
 72
     1
 10
1.049352086190046
 20
0.1898844837165951
 11
1.049352086190046
 21
0.1952949576379935
 72
     1
 10
1.049352086190046
 20
0.1952949576379937
 11
1.049352086190046
 21
0.2003322954268815
 72
     1
 10
1.049352086190046
 20
0.2003322954268814
 11
1.049352086190046
 21
0.2042502248182386
 72
     1
 10
1.049352086190046
 20
0.2042502248182386
 11
1.049352086190046
 21
0.206675609679555
 72
     1
 10
1.049352086190046
 20
0.206675609679555
 11
1.051217766852597
 21
0.206675609679555
 72
     1
 10
1.051217766852596
 20
0.206675609679555
 11
1.055042412210825
 21
0.206675609679555
 72
     1
 10
1.055042412210827
 20
0.206675609679555
 11
1.060452886132226
 21
0.206675609679555
 72
     1
 10
1.060452886132225
 20
0.206675609679555
 11
1.067169336517409
 21
0.206675609679555
 72
     1
 10
1.06716933651741
 20
0.206675609679555
 11
1.075005195300124
 21
0.206675609679555
 72
     1
 10
1.075005195300123
 20
0.206675609679555
 11
1.083494042314731
 21
0.206675609679555
 72
     1
 10
1.083494042314732
 20
0.206675609679555
 11
1.092542593528105
 21
0.206675609679555
 72
     1
 10
1.092542593528106
 20
0.206675609679555
 11
1.10187099684086
 21
0.206675609679555
 72
     1
 10
1.101870996840861
 20
0.206675609679555
 11
1.111106116120489
 21
0.206675609679555
 72
     1
 10
1.111106116120488
 20
0.206675609679555
 11
1.119968099267605
 21
0.206675609679555
 72
     1
 10
1.119968099267605
 20
0.206675609679555
 11
1.128270378215957
 21
0.206675609679555
 72
     1
 10
1.128270378215957
 20
0.206675609679555
 11
1.135639816833034
 21
0.206675609679555
 72
     1
 10
1.135639816833034
 20
0.206675609679555
 11
1.14188984705258
 21
0.206675609679555
 72
     1
 10
1.141889847052581
 20
0.206675609679555
 11
1.146647332742086
 21
0.206675609679555
 72
     1
 10
1.146647332742086
 20
0.206675609679555
 11
1.149725705835295
 21
0.206675609679555
 72
     1
 10
1.149725705835296
 20
0.206675609679555
 11
1.150845114232827
 21
0.206675609679555
 72
     1
 10
1.150845114232826
 20
0.206675609679555
 11
1.150845114232826
 21
0.2277578011663822
 72
     1
 10
1.150845114232826
 20
0.2277578011663825
 11
1.148326445338383
 21
0.2277578011663825
 72
     1
 10
1.148326445338383
 20
0.2277578011663825
 11
1.025937793875031
 21
0.2277578011663825
 72
     1
 10
1.025937793875032
 20
0.2277578011663825
 11
1.025937793875032
 21
0.0926825211976832
 72
     1
 10
1.025937793875032
 20
0.0926825211976832
 11
1.155602599922332
 21
0.0926825211976832
 72
     1
 10
1.155602599922332
 20
0.0926825211976832
 11
1.155602599922332
 21
0.113671428651383
 72
     1
 10
1.155602599922332
 20
0.1136714286513832
 11
1.154483191524801
 21
0.1136714286513832
 72
     1
 10
1.154483191524799
 20
0.1136714286513832
 11
1.151218250365336
 21
0.1136714286513832
 72
     1
 10
1.151218250365338
 20
0.1136714286513832
 11
1.146180912576449
 21
0.1136714286513832
 72
     1
 10
1.146180912576449
 20
0.1136714286513832
 11
1.13965103025752
 21
0.1136714286513832
 72
     1
 10
1.13965103025752
 20
0.1136714286513832
 11
1.131908455507932
 21
0.1136714286513832
 72
     1
 10
1.131908455507931
 20
0.1136714286513832
 11
1.12323304042707
 21
0.1136714286513832
 72
     1
 10
1.123233040427071
 20
0.1136714286513832
 11
1.113904637114314
 21
0.1136714286513832
 72
     1
 10
1.113904637114314
 20
0.1136714286513832
 11
1.104296381702177
 21
0.1136714286513832
 72
     1
 10
1.104296381702177
 20
0.1136714286513832
 11
1.094501558223783
 21
0.1136714286513832
 72
     1
 10
1.094501558223784
 20
0.1136714286513832
 11
1.085079870877901
 21
0.1136714286513832
 72
     1
 10
1.085079870877899
 20
0.1136714286513832
 11
1.076124603697654
 21
0.1136714286513832
 72
     1
 10
1.076124603697655
 20
0.1136714286513832
 11
1.067915608782429
 21
0.1136714286513832
 72
     1
 10
1.067915608782429
 20
0.1136714286513832
 11
1.060919306297863
 21
0.1136714286513832
 72
     1
 10
1.060919306297863
 20
0.1136714286513832
 11
1.055228980277083
 21
0.1136714286513832
 72
     1
 10
1.055228980277082
 20
0.1136714286513832
 11
1.051311050885725
 21
0.1136714286513832
 72
     1
 10
1.051311050885726
 20
0.1136714286513832
 11
1.049352086190046
 21
0.1136714286513832
 72
     1
 10
1.049352086190046
 20
0.1136714286513832
 11
1.049352086190046
 21
0.1163766656120825
 72
     1
 10
1.049352086190046
 20
0.1163766656120823
 11
1.049352086190046
 21
0.1209475832353323
 72
     1
 10
1.049352086190046
 20
0.1209475832353325
 11
1.049352086190046
 21
0.1267311932892411
 72
     1
 10
1.049352086190046
 20
0.1267311932892408
 11
1.049352086190046
 21
0.1330745075419143
 72
     1
 10
1.049352086190046
 20
0.1330745075419144
 11
1.049352086190046
 21
0.1395111058277156
 72
     1
 10
1.049352086190046
 20
0.1395111058277158
 11
1.049352086190046
 21
0.1452947158816239
 72
     1
 10
1.049352086190046
 20
0.145294715881624
 11
1.049352086190046
 21
0.1498656335048746
 72
     1
 10
1.049352086190046
 20
0.1498656335048745
 11
1.049352086190046
 21
0.1525708704655738
 97
        0
 75
     0
 76
     1
 98
        1
 10
-0.3743130907707726
 20
-0.2500502867693841
1001
ACAD
1010
0.0
1020
0.0
1030
0.0
  0
HATCH
  5
6974
330
696D
100
AcDbEntity
  8
Kawneer Logo-English
100
AcDbHatch
 10
0.0
 20
0.0
 30
0.0
210
0.0
220
0.0
230
1.0
  2
SOLID
 70
     1
 71
     0
 91
        1
 92
        1
 93
       42
 72
     1
 10
0.9725793269260698
 20
0.2277578011663825
 11
0.9725793269260698
 21
0.1354998924032311
 72
     1
 10
0.9725793269260698
 20
0.1354998924032311
 11
0.9729524630585808
 21
0.1264513411898582
 72
     1
 10
0.9729524630585796
 20
0.1264513411898583
 11
0.9729524630585796
 21
0.1255185008585825
 72
     1
 10
0.9729524630585796
 20
0.1255185008585824
 11
0.9731390311248343
 21
0.1238393882622866
 72
     1
 10
0.9731390311248349
 20
0.1238393882622866
 11
0.9717397706279211
 21
0.1254252168254551
 72
     1
 10
0.97173977062792
 20
0.1254252168254551
 11
0.9710867823960281
 21
0.1262647731236031
 72
     1
 10
0.9710867823960294
 20
0.1262647731236031
 11
0.9641837639445897
 21
0.1339140638400625
 72
     1
 10
0.9641837639445899
 20
0.1339140638400624
 11
0.8755639324734129
 21
0.2277578011663823
 72
     1
 10
0.8755639324734115
 20
0.2277578011663825
 11
0.8529891964565429
 21
0.2277578011663825
 72
     1
 10
0.8529891964565434
 20
0.2277578011663825
 11
0.8529891964565434
 21
0.0926825211976832
 72
     1
 10
0.8529891964565434
 20
0.0926825211976832
 11
0.8756572165065401
 21
0.0926825211976832
 72
     1
 10
0.875657216506541
 20
0.0926825211976832
 11
0.875657216506541
 21
0.1927762887435495
 72
     1
 10
0.875657216506541
 20
0.1927762887435495
 11
0.875657216506541
 21
0.1931494248760597
 72
     1
 10
0.875657216506541
 20
0.1931494248760596
 11
0.8755639324734129
 21
0.193988981174208
 72
     1
 10
0.8755639324734115
 20
0.1939889811742079
 11
0.8754706484402849
 21
0.1952949576379935
 72
     1
 10
0.8754706484402859
 20
0.1952949576379937
 11
0.8753773644071577
 21
0.1967875021680344
 72
     1
 10
0.875377364407158
 20
0.1967875021680343
 11
0.8755639324734126
 21
0.1965076500686515
 72
     1
 10
0.8755639324734115
 20
0.1965076500686517
 11
0.8756572165065396
 21
0.1963210820023967
 72
     1
 10
0.875657216506541
 20
0.1963210820023967
 11
0.8764967728046894
 21
0.1954815257042487
 72
     1
 10
0.8764967728046887
 20
0.1954815257042488
 11
0.8781758854009835
 21
0.1936158450416976
 72
     1
 10
0.8781758854009842
 20
0.1936158450416973
 11
0.8797617139641527
 21
0.1917501643791464
 72
     1
 10
0.879761713964152
 20
0.1917501643791466
 11
0.8805079862291723
 21
0.1909106080809982
 72
     1
 10
0.8805079862291727
 20
0.190910608080998
 11
0.8816273946267036
 21
0.1897911996834678
 72
     1
 10
0.8816273946267028
 20
0.1897911996834681
 11
0.884519199653657
 21
0.1867128265902584
 72
     1
 10
0.8845191996536581
 20
0.1867128265902582
 11
0.8891834013100353
 21
0.1818620568676254
 72
     1
 10
0.889183401310035
 20
0.1818620568676252
 11
0.8951535794301982
 21
0.1756120266480794
 72
     1
 10
0.8951535794301985
 20
0.1756120266480794
 11
0.9021498819147662
 21
0.1681493039978751
 72
     1
 10
0.9021498819147669
 20
0.1681493039978752
 11
0.9099857406974814
 21
0.1598470250495227
 72
     1
 10
0.9099857406974813
 20
0.1598470250495225
 11
0.9183813036789613
 21
0.1509850419024051
 72
     1
 10
0.9183813036789612
 20
0.1509850419024052
 11
0.9271500027929521
 21
0.1418432066559046
 72
     1
 10
0.9271500027929509
 20
0.1418432066559046
 11
0.9358254178738118
 21
0.1326080873762767
 72
     1
 10
0.9358254178738132
 20
0.1326080873762767
 11
0.9442209808552931
 21
0.1237461042291589
 72
     1
 10
0.9442209808552931
 20
0.1237461042291589
 11
0.9520568396380092
 21
0.1154438252808068
 72
     1
 10
0.9520568396380092
 20
0.1154438252808068
 11
0.9590531421225751
 21
0.1079811026306025
 72
     1
 10
0.959053142122574
 20
0.1079811026306024
 11
0.9650233202427372
 21
0.101731072411056
 72
     1
 10
0.9650233202427376
 20
0.101731072411056
 11
0.9695942378659868
 21
0.0968803026884232
 72
     1
 10
0.9695942378659871
 20
0.096880302688423
 11
0.9725793269260696
 21
0.0938019295952138
 72
     1
 10
0.9725793269260698
 20
0.093801929595214
 11
0.9736054512904727
 21
0.0926825211976834
 72
     1
 10
0.9736054512904726
 20
0.0926825211976832
 11
0.9952473469760661
 21
0.0926825211976832
 72
     1
 10
0.9952473469760651
 20
0.0926825211976832
 11
0.9952473469760651
 21
0.2277578011663825
 72
     1
 10
0.9952473469760651
 20
0.2277578011663825
 11
0.9927286780816201
 21
0.2277578011663825
 72
     1
 10
0.9927286780816203
 20
0.2277578011663825
 11
0.9725793269260686
 21
0.2277578011663825
 97
        0
 75
     0
 76
     1
 98
        1
 10
-0.3743130907707726
 20
-0.2500502867693841
1001
ACAD
1010
0.0
1020
0.0
1030
0.0
  0
HATCH
  5
6975
330
696D
100
AcDbEntity
  8
Kawneer Logo-English
100
AcDbHatch
 10
0.0
 20
0.0
 30
0.0
210
0.0
220
0.0
230
1.0
  2
SOLID
 70
     1
 71
     0
 91
        2
 92
       16
 93
       32
 72
     1
 10
0.5269615006757409
 20
0.144641727649731
 11
0.5290137494045469
 21
0.148652941074216
 72
     1
 10
0.5290137494045464
 20
0.1486529410742159
 11
0.5322786905640116
 21
0.1551828233931449
 72
     1
 10
0.532278690564012
 20
0.1551828233931452
 11
0.5364764720547521
 21
0.1633918183083696
 72
     1
 10
0.5364764720547526
 20
0.1633918183083696
 11
0.5409541056448736
 21
0.1722538014554874
 72
     1
 10
0.5409541056448726
 20
0.1722538014554873
 11
0.545338455201869
 21
0.1808359325032223
 72
     1
 10
0.5453384552018701
 20
0.1808359325032223
 11
0.5490698165269726
 21
0.1882053711202994
 72
     1
 10
0.549069816526973
 20
0.1882053711202996
 11
0.5515884854214162
 21
0.1932427089091875
 72
     1
 10
0.5515884854214148
 20
0.1932427089091872
 11
0.5526146097858177
 21
0.1952016736048658
 72
     1
 10
0.5526146097858194
 20
0.1952016736048658
 11
0.552801177852074
 21
0.195761377803631
 72
     1
 10
0.5528011778520723
 20
0.1957613778036309
 11
0.5533608820508379
 21
0.1970673542674166
 72
     1
 10
0.5533608820508378
 20
0.1970673542674169
 11
0.5542004383489863
 21
0.1990263189630955
 72
     1
 10
0.5542004383489872
 20
0.1990263189630952
 11
0.5550399946471356
 21
0.2012651357581567
 72
     1
 10
0.5550399946471352
 20
0.2012651357581567
 11
0.5555064148127727
 21
0.2001457273606265
 72
     1
 10
0.5555064148127729
 20
0.2001457273606264
 11
0.5560661190115385
 21
0.198933034929968
 72
     1
 10
0.5560661190115379
 20
0.198933034929968
 11
0.5567191072434298
 21
0.197533774433055
 72
     1
 10
0.5567191072434304
 20
0.197533774433055
 11
0.5574653795084506
 21
0.1959479458698865
 72
     1
 10
0.557465379508451
 20
0.1959479458698865
 11
0.5583049358065995
 21
0.1942688332735902
 72
     1
 10
0.5583049358065986
 20
0.1942688332735903
 11
0.5606370366347874
 21
0.1896046316172126
 72
     1
 10
0.5606370366347871
 20
0.1896046316172126
 11
0.5639952618273804
 21
0.1828881812320289
 72
     1
 10
0.5639952618273814
 20
0.1828881812320287
 11
0.5680064752518651
 21
0.1748657543830587
 72
     1
 10
0.5680064752518637
 20
0.1748657543830589
 11
0.57239082480886
 21
0.1661903393021966
 72
     1
 10
0.5723908248088612
 20
0.1661903393021967
 11
0.5765886062996012
 21
0.1577947763207168
 72
     1
 10
0.5765886062996
 20
0.1577947763207165
 11
0.5803199676247008
 21
0.1503320536705122
 72
     1
 10
0.5803199676247015
 20
0.1503320536705122
 11
0.5831184886185295
 21
0.144641727649731
 72
     1
 10
0.5831184886185295
 20
0.144641727649731
 11
0.5791072751940441
 21
0.144641727649731
 72
     1
 10
0.5791072751940436
 20
0.144641727649731
 11
0.5724841088419869
 21
0.144641727649731
 72
     1
 10
0.5724841088419872
 20
0.144641727649731
 11
0.5641818298936356
 21
0.144641727649731
 72
     1
 10
0.5641818298936352
 20
0.144641727649731
 11
0.5550399946471351
 21
0.144641727649731
 72
     1
 10
0.5550399946471352
 20
0.144641727649731
 11
0.5458981594006351
 21
0.144641727649731
 72
     1
 10
0.5458981594006352
 20
0.144641727649731
 11
0.5375958804522815
 21
0.144641727649731
 72
     1
 10
0.5375958804522814
 20
0.144641727649731
 11
0.5310659981333528
 21
0.144641727649731
 72
     1
 10
0.5310659981333524
 20
0.144641727649731
 11
0.5269615006757405
 21
0.144641727649731
 97
        0
 92
        1
 93
      141
 72
     1
 10
0.5656743744236757
 20
0.2277578011663825
 11
0.544405614870593
 21
0.2277578011663825
 72
     1
 10
0.544405614870593
 20
0.2277578011663825
 11
0.4748157261574382
 21
0.0934287934627039
 72
     1
 10
0.4748157261574378
 20
0.0934287934627039
 11
0.4729500454948865
 21
0.0955743262246376
 72
     1
 10
0.4729500454948874
 20
0.0955743262246376
 11
0.4699649564348049
 21
0.0991191194834847
 72
     1
 10
0.4699649564348043
 20
0.0991191194834847
 11
0.4661403110765752
 21
0.1036900371067346
 72
     1
 10
0.4661403110765754
 20
0.1036900371067347
 11
0.4615693934533244
 21
0.1091005110281331
 72
     1
 10
0.461569393453325
 20
0.109100511028133
 11
0.456345487598182
 21
0.1152572572145517
 72
     1
 10
0.4563454875981812
 20
0.1152572572145516
 11
0.4506551615774008
 21
0.1219737075997353
 72
     1
 10
0.4506551615774015
 20
0.1219737075997354
 11
0.4447782674903648
 21
0.1290632941174296
 72
     1
 10
0.4447782674903636
 20
0.1290632941174296
 11
0.4387148053370722
 21
0.1362461646682511
 72
     1
 10
0.4387148053370727
 20
0.1362461646682512
 11
0.4326513431837832
 21
0.1433357511859454
 72
     1
 10
0.4326513431837844
 20
0.1433357511859453
 11
0.4268677331298759
 21
0.1502387696373844
 72
     1
 10
0.4268677331298756
 20
0.1502387696373844
 11
0.4214572592084763
 21
0.1566753679231857
 72
     1
 10
0.4214572592084754
 20
0.1566753679231858
 11
0.4165132054527153
 21
0.1625522620102216
 72
     1
 10
0.4165132054527163
 20
0.1625522620102216
 11
0.4123154239619763
 21
0.1674963157659821
 72
     1
 10
0.4123154239619753
 20
0.1674963157659822
 11
0.4088639147362555
 21
0.1715075291904667
 72
     1
 10
0.4088639147362568
 20
0.1715075291904669
 11
0.4065318139080681
 21
0.1743993342174211
 72
     1
 10
0.4065318139080665
 20
0.1743993342174211
 11
0.405319121477409
 21
0.1757985947143345
 72
     1
 10
0.4053191214774104
 20
0.1757985947143345
 11
0.4067183819743243
 21
0.1769180031118651
 72
     1
 10
0.4067183819743235
 20
0.1769180031118651
 11
0.4094236189350213
 21
0.1788769678075437
 72
     1
 10
0.4094236189350218
 20
0.1788769678075437
 11
0.4132482642932526
 21
0.1816754888013702
 72
     1
 10
0.4132482642932525
 20
0.1816754888013703
 11
0.4179124659496298
 21
0.1852202820602174
 72
     1
 10
0.417912465949629
 20
0.1852202820602174
 11
0.4232296558379
 21
0.189138211451575
 72
     1
 10
0.4232296558379001
 20
0.1891382114515751
 11
0.4291065499249351
 21
0.1935225610085696
 72
     1
 10
0.4291065499249367
 20
0.1935225610085698
 11
0.4352632961113562
 21
0.1981867626649482
 72
     1
 10
0.4352632961113554
 20
0.1981867626649479
 11
0.4416066103640296
 21
0.2028509643213252
 72
     1
 10
0.4416066103640293
 20
0.2028509643213252
 11
0.4479499246167016
 21
0.2076084500108307
 72
     1
 10
0.4479499246167018
 20
0.2076084500108307
 11
0.4540133867699932
 21
0.2120860836009535
 72
     1
 10
0.4540133867699927
 20
0.2120860836009535
 11
0.4596104287576467
 21
0.2162838650916932
 72
     1
 10
0.4596104287576468
 20
0.216283865091693
 11
0.4646477665465351
 21
0.2200152264167952
 72
     1
 10
0.464647766546535
 20
0.2200152264167951
 11
0.4689388320704013
 21
0.223186883543132
 72
     1
 10
0.4689388320704016
 20
0.2231868835431323
 11
0.4721104891967386
 21
0.2256122684044488
 72
     1
 10
0.4721104891967376
 20
0.2256122684044488
 11
0.4742560219586717
 21
0.2271980969676172
 72
     1
 10
0.4742560219586727
 20
0.2271980969676173
 11
0.475002294223693
 21
0.2277578011663825
 72
     1
 10
0.4750022942236929
 20
0.2277578011663825
 11
0.4674462875403612
 21
0.2277578011663825
 72
     1
 10
0.4674462875403611
 20
0.2277578011663825
 11
0.4395543616352215
 21
0.2277578011663825
 72
     1
 10
0.439554361635222
 20
0.2277578011663825
 11
0.4386215213039473
 21
0.2270115289013622
 72
     1
 10
0.4386215213039466
 20
0.2270115289013622
 11
0.4359162843432469
 21
0.2250525642056836
 72
     1
 10
0.4359162843432465
 20
0.2250525642056836
 11
0.4318117868856346
 21
0.2220674751456017
 72
     1
 10
0.4318117868856351
 20
0.2220674751456017
 11
0.4264013129642376
 21
0.2180562617211167
 72
     1
 10
0.4264013129642379
 20
0.2180562617211168
 11
0.4200579987115638
 21
0.2132987760316117
 72
     1
 10
0.4200579987115641
 20
0.2132987760316114
 11
0.4128751281607416
 21
0.2079815861433408
 72
     1
 10
0.4128751281607408
 20
0.2079815861433408
 11
0.4051325534111546
 21
0.20229126012256
 72
     1
 10
0.4051325534111552
 20
0.20229126012256
 11
0.397016842529058
 21
0.1963210820023964
 72
     1
 10
0.3970168425290583
 20
0.1963210820023967
 11
0.3889011316469611
 21
0.1903509038822331
 72
     1
 10
0.3889011316469611
 20
0.190350903882233
 11
0.3808787047979902
 21
0.1844740097951972
 72
     1
 10
0.3808787047979898
 20
0.1844740097951974
 11
0.3733226981146581
 21
0.1787836837744166
 72
     1
 10
0.373322698114658
 20
0.1787836837744166
 11
0.3663263956300919
 21
0.173653061952401
 72
     1
 10
0.3663263956300931
 20
0.173653061952401
 11
0.3601696494436735
 21
0.169082144329151
 72
     1
 10
0.3601696494436726
 20
0.1690821443291508
 11
0.3550390276216579
 21
0.1653507830040483
 72
     1
 10
0.3550390276216584
 20
0.1653507830040482
 11
0.3513076662965558
 21
0.1625522620102218
 72
     1
 10
0.3513076662965551
 20
0.1625522620102216
 11
0.3490688495014928
 21
0.1609664334470531
 72
     1
 10
0.3490688495014926
 20
0.1609664334470531
 11
0.3490688495014926
 21
0.1631119662089868
 72
     1
 10
0.3490688495014926
 20
0.1631119662089868
 11
0.3490688495014926
 21
0.1662836233353237
 72
     1
 10
0.3490688495014926
 20
0.1662836233353238
 11
0.3490688495014926
 21
0.1702948367598088
 72
     1
 10
0.3490688495014926
 20
0.1702948367598088
 11
0.3490688495014926
 21
0.1749590384161865
 72
     1
 10
0.3490688495014926
 20
0.1749590384161865
 11
0.3490688495014926
 21
0.1801829442713294
 72
     1
 10
0.3490688495014926
 20
0.1801829442713296
 11
0.3490688495014926
 21
0.185779986258983
 72
     1
 10
0.3490688495014926
 20
0.1857799862589829
 11
0.3490688495014926
 21
0.1916568803460187
 72
     1
 10
0.3490688495014926
 20
0.1916568803460186
 11
0.3490688495014926
 21
0.1975337744330549
 72
     1
 10
0.3490688495014926
 20
0.197533774433055
 11
0.3490688495014926
 21
0.2033173844869632
 72
     1
 10
0.3490688495014926
 20
0.2033173844869631
 11
0.3490688495014926
 21
0.2088211424414888
 72
     1
 10
0.3490688495014926
 20
0.2088211424414888
 11
0.3490688495014926
 21
0.2139517642635044
 72
     1
 10
0.3490688495014926
 20
0.2139517642635044
 11
0.3490688495014926
 21
0.2185226818867544
 72
     1
 10
0.3490688495014926
 20
0.2185226818867545
 11
0.3490688495014926
 21
0.2222540432118567
 72
     1
 10
0.3490688495014926
 20
0.2222540432118567
 11
0.3490688495014926
 21
0.2252391322719387
 72
     1
 10
0.3490688495014926
 20
0.2252391322719387
 11
0.3490688495014926
 21
0.2271048129344895
 72
     1
 10
0.3490688495014926
 20
0.2271048129344895
 11
0.3490688495014926
 21
0.2277578011663825
 72
     1
 10
0.3490688495014926
 20
0.2277578011663825
 11
0.3258411252527322
 21
0.2277578011663825
 72
     1
 10
0.3258411252527336
 20
0.2277578011663825
 11
0.3258411252527336
 21
0.0926825211976832
 72
     1
 10
0.3258411252527336
 20
0.0926825211976832
 11
0.3486957133689848
 21
0.0926825211976832
 72
     1
 10
0.3486957133689845
 20
0.0926825211976832
 11
0.3486957133689845
 21
0.0943616337939795
 72
     1
 10
0.3486957133689845
 20
0.0943616337939795
 11
0.3486957133689845
 21
0.0988392673841017
 72
     1
 10
0.3486957133689845
 20
0.0988392673841017
 11
0.3486957133689845
 21
0.1051825816367752
 72
     1
 10
0.3486957133689845
 20
0.1051825816367753
 11
0.3486957133689845
 21
0.1125520202538523
 72
     1
 10
0.3486957133689845
 20
0.1125520202538524
 11
0.3486957133689845
 21
0.1200147429040567
 72
     1
 10
0.3486957133689845
 20
0.1200147429040567
 11
0.3486957133689845
 21
0.1267311932892408
 72
     1
 10
0.3486957133689845
 20
0.1267311932892408
 11
0.3486957133689845
 21
0.1317685310781287
 72
     1
 10
0.3486957133689845
 20
0.1317685310781289
 11
0.3486957133689845
 21
0.1342871999725727
 72
     1
 10
0.3486957133689845
 20
0.1342871999725725
 11
0.3507479620977905
 21
0.1356864604694859
 72
     1
 10
0.35074796209779
 20
0.1356864604694859
 11
0.3548524595554018
 21
0.1387648335626952
 72
     1
 10
0.3548524595554015
 20
0.1387648335626952
 11
0.3605427855761835
 21
0.1428693310203079
 72
     1
 10
0.3605427855761842
 20
0.1428693310203079
 11
0.3668860998288565
 21
0.1476268167098129
 72
     1
 10
0.3668860998288568
 20
0.1476268167098129
 11
0.373322698114659
 21
0.1522910183661906
 72
     1
 10
0.373322698114658
 20
0.1522910183661908
 11
0.3791995922016947
 21
0.1565820838900582
 72
     1
 10
0.3791995922016946
 20
0.1565820838900582
 11
0.3836772257918156
 21
0.1599403090826502
 72
     1
 10
0.3836772257918159
 20
0.1599403090826503
 11
0.386195894686261
 21
0.1618059897452011
 72
     1
 10
0.3861958946862609
 20
0.1618059897452011
 11
0.3873153030837921
 21
0.1604067292482882
 72
     1
 10
0.3873153030837915
 20
0.1604067292482878
 11
0.3894608358457238
 21
0.1577947763207163
 72
     1
 10
0.3894608358457248
 20
0.1577947763207165
 11
0.3925392089389353
 21
0.1541566990287417
 72
     1
 10
0.3925392089389348
 20
0.1541566990287417
 11
0.396457138330292
 21
0.149492497372364
 72
     1
 10
0.3964571383302933
 20
0.149492497372364
 11
0.4009347719204161
 21
0.1442685915172211
 72
     1
 10
0.4009347719204146
 20
0.1442685915172209
 11
0.4057855416430466
 21
0.138391697430185
 72
     1
 10
0.4057855416430463
 20
0.1383916974301853
 11
0.4109161634650628
 21
0.1322349512437666
 72
     1
 10
0.410916163465064
 20
0.1322349512437666
 11
0.4162333533533335
 21
0.1259849210242201
 72
     1
 10
0.4162333533533334
 20
0.1259849210242201
 11
0.4215505432416044
 21
0.1196416067715466
 72
     1
 10
0.4215505432416045
 20
0.1196416067715466
 11
0.4265878810304927
 21
0.113671428651383
 72
     1
 10
0.4265878810304931
 20
0.1136714286513832
 11
0.4312520826868704
 21
0.1079811026306024
 72
     1
 10
0.4312520826868696
 20
0.1079811026306024
 11
0.4355431482107378
 21
0.1029437648417141
 72
     1
 10
0.435543148210738
 20
0.1029437648417139
 11
0.4390879414695842
 21
0.0987459833509739
 72
     1
 10
0.4390879414695843
 20
0.0987459833509741
 11
0.4417931784302841
 21
0.0954810421915098
 72
     1
 10
0.4417931784302845
 20
0.0954810421915096
 11
0.4435655750597076
 21
0.0934287934627037
 72
     1
 10
0.4435655750597074
 20
0.0934287934627039
 11
0.4442185632915993
 21
0.0926825211976832
 72
     1
 10
0.4442185632915985
 20
0.0926825211976832
 11
0.4743493059918004
 21
0.0926825211976832
 72
     1
 10
0.4743493059918001
 20
0.0926825211976832
 11
0.4753754303562029
 21
0.0926825211976832
 72
     1
 10
0.4753754303562033
 20
0.0926825211976832
 11
0.5008419714000258
 21
0.0926825211976832
 72
     1
 10
0.5008419714000265
 20
0.0926825211976832
 11
0.5014949596319184
 21
0.0939884976614689
 72
     1
 10
0.501494959631919
 20
0.0939884976614688
 11
0.5031740722282155
 21
0.0973467228540609
 72
     1
 10
0.503174072228215
 20
0.0973467228540612
 11
0.5055061730564038
 21
0.1021042085435666
 72
     1
 10
0.505506173056403
 20
0.1021042085435665
 11
0.5083046940502291
 21
0.1077012505312196
 72
     1
 10
0.5083046940502292
 20
0.1077012505312194
 11
0.5111032150440553
 21
0.1134848605851279
 72
     1
 10
0.5111032150440549
 20
0.1134848605851281
 11
0.5137151679716264
 21
0.1186154824071433
 72
     1
 10
0.5137151679716277
 20
0.1186154824071433
 11
0.5156741326673071
 21
0.1226266958316283
 72
     1
 10
0.5156741326673076
 20
0.122626695831628
 11
0.5167002570317104
 21
0.1247722285935621
 72
     1
 10
0.5167002570317103
 20
0.1247722285935622
 11
0.5180062334954961
 21
0.1247722285935622
 72
     1
 10
0.5180062334954961
 20
0.1247722285935622
 11
0.5207114704561957
 21
0.1247722285935622
 72
     1
 10
0.5207114704561944
 20
0.1247722285935622
 11
0.5246293998475517
 21
0.1247722285935622
 72
     1
 10
0.5246293998475525
 20
0.1247722285935622
 11
0.5295734536033125
 21
0.1247722285935622
 72
     1
 10
0.5295734536033115
 20
0.1247722285935622
 11
0.5352637796240919
 21
0.1247722285935622
 72
     1
 10
0.5352637796240929
 20
0.1247722285935622
 11
0.5415138098436386
 21
0.1247722285935622
 72
     1
 10
0.5415138098436394
 20
0.1247722285935622
 11
0.5482302602288245
 21
0.1247722285935622
 72
     1
 10
0.5482302602288236
 20
0.1247722285935622
 11
0.5551332786802616
 21
0.1247722285935622
 72
     1
 10
0.5551332786802608
 20
0.1247722285935622
 11
0.5620362971317004
 21
0.1247722285935622
 72
     1
 10
0.5620362971317015
 20
0.1247722285935622
 11
0.5687527475168847
 21
0.1247722285935622
 72
     1
 10
0.5687527475168839
 20
0.1247722285935622
 11
0.5750027777364317
 21
0.1247722285935622
 72
     1
 10
0.5750027777364322
 20
0.1247722285935622
 11
0.5806931037572126
 21
0.1247722285935622
 72
     1
 10
0.5806931037572119
 20
0.1247722285935622
 11
0.585637157512972
 21
0.1247722285935622
 72
     1
 10
0.5856371575129727
 20
0.1247722285935622
 11
0.5895550869043299
 21
0.1247722285935622
 72
     1
 10
0.5895550869043289
 20
0.1247722285935622
 11
0.5922603238650286
 21
0.1247722285935622
 72
     1
 10
0.5922603238650291
 20
0.1247722285935622
 11
0.5935663003288148
 21
0.1247722285935622
 72
     1
 10
0.5935663003288148
 20
0.1247722285935622
 11
0.5945924246932176
 21
0.1226266958316281
 72
     1
 10
0.5945924246932175
 20
0.122626695831628
 11
0.5965513893888953
 21
0.1186154824071431
 72
     1
 10
0.5965513893888957
 20
0.1186154824071433
 11
0.5991633423164672
 21
0.1134848605851281
 72
     1
 10
0.5991633423164667
 20
0.1134848605851281
 11
0.6019618633102946
 21
0.1077012505312196
 72
     1
 10
0.6019618633102959
 20
0.1077012505312194
 11
0.604760384304122
 21
0.1021042085435664
 72
     1
 10
0.6047603843041221
 20
0.1021042085435665
 11
0.6070924851323109
 21
0.0973467228540611
 72
     1
 10
0.6070924851323101
 20
0.0973467228540612
 11
0.6087715977286067
 21
0.0939884976614691
 72
     1
 10
0.6087715977286062
 20
0.0939884976614688
 11
0.609424585960498
 21
0.0926825211976832
 72
     1
 10
0.6094245859604986
 20
0.0926825211976832
 11
0.6363836715343633
 21
0.0926825211976832
 72
     1
 10
0.6363836715343641
 20
0.0926825211976832
 11
0.5671669189537184
 21
0.2277578011663825
 72
     1
 10
0.5671669189537179
 20
0.2277578011663825
 11
0.5656743744236758
 21
0.2277578011663825
 97
        0
 75
     0
 76
     1
 98
        1
 10
-0.3743130907707726
 20
-0.2500502867693841
1001
ACAD
1010
0.0
1020
0.0
1030
0.0
  0
HATCH
  5
6976
330
696D
100
AcDbEntity
  8
Kawneer Logo-English
100
AcDbHatch
 10
0.0
 20
0.0
 30
0.0
210
0.0
220
0.0
230
1.0
  2
SOLID
 70
     1
 71
     0
 91
        1
 92
        1
 93
       69
 72
     1
 10
0.8092389849197205
 20
0.2277578011663825
 11
0.778921674153266
 21
0.1309289747799811
 72
     1
 10
0.778921674153267
 20
0.1309289747799809
 11
0.7781754018882468
 21
0.1287834420180468
 72
     1
 10
0.7781754018882468
 20
0.1287834420180467
 11
0.7776156976894812
 21
0.1270110453886236
 72
     1
 10
0.7776156976894813
 20
0.1270110453886237
 11
0.7771492775238438
 21
0.1253319327923275
 72
     1
 10
0.7771492775238436
 20
0.1253319327923274
 11
0.7766828573582045
 21
0.1238393882622867
 72
     1
 10
0.7766828573582046
 20
0.1238393882622866
 11
0.7764030052588217
 21
0.1248655126266895
 72
     1
 10
0.776403005258822
 20
0.1248655126266896
 11
0.7761231531594392
 21
0.1259849210242202
 72
     1
 10
0.7761231531594391
 20
0.1259849210242201
 11
0.7759365850931844
 21
0.1268244773223681
 72
     1
 10
0.7759365850931843
 20
0.1268244773223682
 11
0.7758433010600562
 21
0.1271976134548783
 72
     1
 10
0.7758433010600552
 20
0.1271976134548783
 11
0.7755634489606744
 21
0.1280371697530267
 72
     1
 10
0.775563448960674
 20
0.1280371697530267
 11
0.7750970287950349
 21
0.1291565781505569
 72
     1
 10
0.7750970287950363
 20
0.1291565781505568
 11
0.773977620397507
 21
0.1323282352768938
 72
     1
 10
0.7739776203975062
 20
0.1323282352768939
 11
0.7721119397349549
 21
0.1372722890326544
 72
     1
 10
0.7721119397349554
 20
0.1372722890326546
 11
0.7697798389067666
 21
0.1436156032853281
 72
     1
 10
0.769779838906767
 20
0.1436156032853281
 11
0.7670746019460673
 21
0.1511716099686602
 72
     1
 10
0.7670746019460668
 20
0.15117160996866
 11
0.7639962288528581
 21
0.1595671729501399
 72
     1
 10
0.7639962288528582
 20
0.15956717295014
 11
0.7606380036602665
 21
0.1686157241635125
 72
     1
 10
0.7606380036602652
 20
0.1686157241635125
 11
0.7572797784676718
 21
0.1778508434431408
 72
     1
 10
0.7572797784676726
 20
0.1778508434431408
 11
0.753921553275081
 21
0.187179246755896
 72
     1
 10
0.7539215532750814
 20
0.1871792467558961
 11
0.7505633280824898
 21
0.1962277979692689
 72
     1
 10
0.7505633280824902
 20
0.1962277979692689
 11
0.7474849549892814
 21
0.2046233609507488
 72
     1
 10
0.7474849549892797
 20
0.2046233609507488
 11
0.74477971802858
 21
0.2121793676340809
 72
     1
 10
0.7447797180285814
 20
0.2121793676340809
 11
0.7424476172003926
 21
0.2185226818867544
 72
     1
 10
0.7424476172003929
 20
0.2185226818867545
 11
0.7405819365378416
 21
0.2234667356425151
 72
     1
 10
0.7405819365378408
 20
0.2234667356425151
 11
0.7394625281403098
 21
0.2266383927688516
 72
     1
 10
0.7394625281403103
 20
0.2266383927688516
 11
0.7390893920078009
 21
0.2277578011663822
 72
     1
 10
0.7390893920078004
 20
0.2277578011663825
 11
0.7191266089185034
 21
0.2277578011663825
 72
     1
 10
0.7191266089185029
 20
0.2277578011663825
 11
0.6843316645619254
 21
0.1336342117406798
 72
     1
 10
0.6843316645619267
 20
0.1336342117406795
 11
0.6832122561643957
 21
0.130649122680598
 72
     1
 10
0.6832122561643961
 20
0.1306491226805981
 11
0.6823726998662476
 21
0.1282237378192816
 72
     1
 10
0.6823726998662468
 20
0.1282237378192818
 11
0.6817197116343549
 21
0.1260782050573481
 72
     1
 10
0.6817197116343552
 20
0.1260782050573481
 11
0.6811600074355896
 21
0.1241192403616695
 72
     1
 10
0.6811600074355884
 20
0.1241192403616695
 11
0.6808801553362055
 21
0.1250520806929446
 72
     1
 10
0.6808801553362059
 20
0.1250520806929445
 11
0.6805070192036949
 21
0.1261714890904751
 72
     1
 10
0.680507019203696
 20
0.1261714890904752
 11
0.6802271671043131
 21
0.1272908974880058
 72
     1
 10
0.680227167104313
 20
0.1272908974880061
 11
0.6798540309718037
 21
0.1286901579849195
 72
     1
 10
0.6798540309718031
 20
0.1286901579849194
 11
0.6794808948392922
 21
0.12980956638245
 72
     1
 10
0.6794808948392932
 20
0.1298095663824503
 11
0.6784547704748904
 21
0.1328879394756595
 72
     1
 10
0.67845477047489
 20
0.1328879394756595
 11
0.6769622259448497
 21
0.1378319932314196
 72
     1
 10
0.6769622259448496
 20
0.1378319932314196
 11
0.6750032612491701
 21
0.1441753074840938
 72
     1
 10
0.6750032612491697
 20
0.1441753074840937
 11
0.6725778763878547
 21
0.1516380301342981
 72
     1
 10
0.6725778763878556
 20
0.1516380301342981
 11
0.6699659234602841
 21
0.160033593115778
 72
     1
 10
0.6699659234602829
 20
0.160033593115778
 11
0.6671674024664549
 21
0.168988860296023
 72
     1
 10
0.6671674024664554
 20
0.168988860296023
 11
0.6642755974395012
 21
0.1782239795756509
 72
     1
 10
0.6642755974395019
 20
0.178223979575651
 11
0.6613837924125477
 21
0.1874590988552789
 72
     1
 10
0.6613837924125466
 20
0.1874590988552789
 11
0.6585852714187205
 21
0.1964143660355239
 72
     1
 10
0.6585852714187204
 20
0.1964143660355237
 11
0.6559733184911489
 21
0.2047166449838762
 72
     1
 10
0.6559733184911494
 20
0.2047166449838765
 11
0.6536412176629606
 21
0.2122726516672082
 72
     1
 10
0.6536412176629614
 20
0.2122726516672082
 11
0.6515889689341538
 21
0.2186159659198823
 72
     1
 10
0.6515889689341537
 20
0.2186159659198821
 11
0.6500964244041133
 21
0.2234667356425149
 72
     1
 10
0.6500964244041132
 20
0.2234667356425151
 11
0.6490703000397104
 21
0.2266383927688516
 72
     1
 10
0.6490703000397105
 20
0.2266383927688516
 11
0.6487904479403276
 21
0.2277578011663822
 72
     1
 10
0.648790447940328
 20
0.2277578011663825
 11
0.6237903270621445
 21
0.2277578011663825
 72
     1
 10
0.6237903270621437
 20
0.2277578011663825
 11
0.6676338226320932
 21
0.0926825211976832
 72
     1
 10
0.6676338226320926
 20
0.0926825211976832
 11
0.6922608073777669
 21
0.0926825211976832
 72
     1
 10
0.6922608073777666
 20
0.0926825211976832
 11
0.726029627369941
 21
0.1855001341596003
 72
     1
 10
0.7260296273699423
 20
0.1855001341596003
 11
0.7269624677012189
 21
0.1882986551534267
 72
     1
 10
0.7269624677012177
 20
0.1882986551534266
 11
0.7278020239993661
 21
0.1906307559816158
 72
     1
 10
0.727802023999367
 20
0.1906307559816159
 11
0.7284550122312589
 21
0.1927762887435496
 72
     1
 10
0.7284550122312581
 20
0.1927762887435495
 11
0.7290147164300237
 21
0.1947352534392281
 72
     1
 10
0.7290147164300232
 20
0.1947352534392282
 11
0.7298542727281716
 21
0.192216584544784
 72
     1
 10
0.729854272728173
 20
0.1922165845447839
 11
0.7306938290263214
 21
0.1894180635509575
 72
     1
 10
0.7306938290263206
 20
0.1894180635509575
 11
0.7318132374238499
 21
0.1863396904577483
 72
     1
 10
0.7318132374238511
 20
0.1863396904577481
 11
0.7331192138876387
 21
0.1827016131657736
 72
     1
 10
0.7331192138876382
 20
0.1827016131657737
 11
0.7654887733828987
 21
0.0926825211976834
 72
     1
 10
0.7654887733828986
 20
0.0926825211976832
 11
0.7895560539298075
 21
0.0926825211976832
 72
     1
 10
0.7895560539298075
 20
0.0926825211976832
 11
0.8341458217647785
 21
0.2277578011663825
 72
     1
 10
0.8341458217647783
 20
0.2277578011663825
 11
0.830601028505932
 21
0.2277578011663825
 72
     1
 10
0.8306010285059324
 20
0.2277578011663825
 11
0.8092389849197216
 21
0.2277578011663825
 97
        0
 75
     0
 76
     1
 98
        1
 10
-0.3743130907707726
 20
-0.2500502867693841
1001
ACAD
1010
0.0
1020
0.0
1030
0.0
  0
ENDBLK
  5
697A
330
696D
100
AcDbEntity
  8
0
100
AcDbBlockEnd
  0
ENDSEC
  0
SECTION
  2
ENTITIES
  0
MTEXT
  5
2082
330
17
100
AcDbEntity
  8
0
 62
     2
100
AcDbMText
 10
29.74621957809438
 20
2.402443647182423
 30
0.0
 40
0.375
 41
11.91800541288839
 71
     2
 72
     5
  1
DETAIL SCALE: 1" = 1"
 73
     1
 44
1.0
1001
ACAD
1000
MTEXTBEGIN
1070
    73
1070
     1
1070
    44
1040
1.0
1070
    74
1070
     0
1000
MTEXTEND
  0
LINE
  5
2085
330
17
100
AcDbEntity
  8
0
100
AcDbLine
 10
0.0
 20
0.0
 30
0.0
 11
0.0
 21
36.19195733340607
 31
0.0
  0
LINE
  5
2088
330
17
100
AcDbEntity
  8
0
100
AcDbLine
 10
0.0
 20
0.0
 30
0.0
 11
58.43059373869616
 21
0.0
 31
0.0
  0
MTEXT
  5
2099
330
17
100
AcDbEntity
  8
0
 62
     2
100
AcDbMText
 10
29.74621957809438
 20
6.793987571013603
 30
0.0
 40
0.5
 41
28.37108237461568
 71
     2
 72
     5
  1
TRIFAB™ VG 451 FRAMING SYSTEM 451 \PMULTI PLANE - SCREW SPLINE/SHEAR BLOCK ASSEMBLY\P TRANSITION MULLIONS\P(1" INFILL)
 73
     1
 44
1.0
1001
ACAD
1000
MTEXTBEGIN
1070
    73
1070
     1
1070
    44
1040
1.0
1070
    74
1070
     0
1000
MTEXTEND
1000
ACAD_MTEXT_DEFINED_HEIGHT_BEGIN
1070
    46
1040
3.181787175989086
1000
ACAD_MTEXT_DEFINED_HEIGHT_END
  0
TEXT
  5
5AF5
330
17
100
AcDbEntity
  8
0
  6
Continuous
 62
     7
100
AcDbText
 10
15.59109249341414
 20
22.97836929100084
 30
0.0
 40
0.375
  1
FRONT TO BACK VERTICAL
 72
     1
 11
19.06943492179067
 21
22.97836929100084
 31
0.0
100
AcDbText
  0
TEXT
  5
5B0B
330
17
100
AcDbEntity
  8
0
  6
Continuous
 62
     7
100
AcDbText
 10
26.26556142614892
 20
22.97836929100084
 30
0.0
 40
0.375
  1
BACK TO FRONT VERTICAL
 72
     1
 11
29.74390385452546
 21
22.97836929100084
 31
0.0
100
AcDbText
  0
TEXT
  5
5D45
330
17
100
AcDbEntity
  8
0
  6
Continuous
 62
     7
100
AcDbText
 10
15.17276333348235
 20
9.910488854889131
 30
0.0
 40
0.375
  1
CENTER TO FRONT VERTICAL
 72
     1
 11
19.01472274685207
 21
9.910488854889131
 31
0.0
100
AcDbText
  0
TEXT
  5
5D46
330
17
100
AcDbEntity
  8
0
  6
Continuous
 62
     7
100
AcDbText
 10
36.50916414254389
 20
22.97836929100084
 30
0.0
 40
0.375
  1
FRONT TO CENTER VERTICAL
 72
     1
 11
40.3511235559136
 21
22.97836929100084
 31
0.0
100
AcDbText
  0
TEXT
  5
5D4C
330
17
100
AcDbEntity
  8
0
  6
Continuous
 62
     7
100
AcDbText
 10
25.89610980696763
 20
9.910488854889131
 30
0.0
 40
0.375
  1
CENTER TO BACK VERTICAL
 72
     1
 11
29.54929022988713
 21
9.910488854889131
 31
0.0
100
AcDbText
  0
TEXT
  5
614B
330
17
100
AcDbEntity
  8
0
  6
Continuous
 62
     7
100
AcDbText
 10
36.21272079564205
 20
9.910488854889131
 30
0.0
 40
0.375
  1
BACK TO CENTER VERTICAL
 72
     1
 11
39.86590121856156
 21
9.910488854889131
 31
0.0
100
AcDbText
  0
LWPOLYLINE
  5
614C
330
17
100
AcDbEntity
  8
R-SWTS-DET1
100
AcDbPolyline
 90
        6
 70
     0
 43
0.0
 10
26.78643436005078
 20
31.16451187553467
 10
26.78643436005078
 20
28.76452187553468
 10
26.58645436005078
 20
28.71450187553467
 10
26.98643436005079
 20
28.61452187553467
 10
26.78643436005078
 20
28.56452187553467
 10
26.78643436005078
 20
26.16451187553467
  0
LWPOLYLINE
  5
614D
330
17
100
AcDbEntity
  8
R-SWTS-DET1
100
AcDbPolyline
 90
        6
 70
     0
 43
0.0
 10
32.78645436005079
 20
26.16451187553467
 10
32.78645436005079
 20
28.56450187553467
 10
32.98643436005079
 20
28.61452187553467
 10
32.58645436005079
 20
28.71450187553467
 10
32.78645436005079
 20
28.76450187553467
 10
32.7864543600508
 20
31.16451187553467
  0
LINE
  5
614E
330
17
100
AcDbEntity
  8
R-SWTS-DET1
100
AcDbLine
 10
30.78644436005079
 20
26.41451187553467
 30
0.0
 11
32.78645436005079
 21
26.41451187553467
 31
0.0
  0
LINE
  5
614F
330
17
100
AcDbEntity
  8
R-SWTS-DET1
100
AcDbLine
 10
30.78644436005079
 20
30.91451187553467
 30
0.0
 11
32.78645436005079
 21
30.91451187553467
 31
0.0
  0
LINE
  5
6150
330
17
100
AcDbEntity
  8
R-SWTS-DET1
100
AcDbLine
 10
28.78644436005079
 20
30.91451187553467
 30
0.0
 11
26.78643436005078
 21
30.91451187553467
 31
0.0
  0
LINE
  5
6151
330
17
100
AcDbEntity
  8
R-SWTS-DET1
100
AcDbLine
 10
28.78644436005079
 20
26.41451187553467
 30
0.0
 11
26.78643436005078
 21
26.41451187553467
 31
0.0
  0
TEXT
  5
6152
330
17
100
AcDbEntity
  8
PART_NUMBERS
100
AcDbText
 10
26.95926641694138
 20
31.4158069547339
 30
0.0
 40
0.25
  1
451VG069 TRANSITION MULLION
100
AcDbText
  0
LWPOLYLINE
  5
6153
330
17
100
AcDbEntity
  8
R-SWTS-DET1
100
AcDbPolyline
 90
      134
 70
     1
 43
0.0
 10
28.88894436005079
 20
30.63351187553467
 10
28.88894436005079
 20
30.60451187553467
 10
28.9269443600508
 20
30.60451187553467
 10
29.02910259386715
 20
30.62694892351999
 42
0.3541185725306862
 10
29.04494436005079
 20
30.64651187553466
 10
29.04494436005079
 20
30.68846187553467
 10
28.97832202958046
 20
30.75513954506433
 42
0.1989123673796512
 10
28.9606443600508
 20
30.76246187553467
 10
28.88894436005079
 20
30.76246187553467
 10
28.88894436005079
 20
30.73346187553467
 10
28.78644436005079
 20
30.76949217856498
 10
28.78644436005079
 20
30.91451187553467
 10
30.78644436005079
 20
30.91451187553467
 10
30.78644436005079
 20
30.82451187553466
 10
30.45744436005079
 20
30.82451187553466
 10
30.45744436005079
 20
30.7624941085817
 42
-0.6681786379192535
 10
30.44037329223892
 20
30.75542304076983
 10
30.37128445747408
 20
30.82451187553466
 10
30.24031475241744
 20
30.82451187553466
 42
0.4142135623730847
 10
30.21531475241744
 20
30.79951187553466
 10
30.21531475241744
 20
30.53719533385655
 42
0.4142135623730951
 10
30.31531475241744
 20
30.43719533385655
 10
30.56017809181466
 20
30.43719533385655
 10
30.57602224289896
 20
30.46463820853736
 42
-0.4142135623730951
 10
30.59651262395572
 20
30.47012858959412
 10
30.64604326635573
 20
30.44153205987135
 42
-0.2679491924311083
 10
30.65354326635573
 20
30.42854167881458
 10
30.65354326635573
 20
30.40195957066402
 42
-0.4142135623730951
 10
30.63854326635573
 20
30.38695957066402
 10
30.31531475241744
 20
30.38695957066401
 42
-0.4142135623730968
 10
30.16531475241744
 20
30.53695957066402
 10
30.16531475241744
 20
30.79951187553466
 42
0.4142135623730847
 10
30.14031475241744
 20
30.82451187553466
 10
29.93644436005079
 20
30.82451187553466
 42
0.4142135623730971
 10
29.87644436005079
 20
30.76451187553466
 10
29.87644436005079
 20
30.14950687553469
 42
0.4142135623730821
 10
29.89644436005079
 20
30.12950687553469
 10
30.0914443600508
 20
30.12950687553469
 42
-0.4142135623730951
 10
30.1614443600508
 20
30.05950687553469
 10
30.1614443600508
 20
29.91850687553469
 10
30.09594436005079
 20
29.91850687553469
 42
-0.9999999999999998
 10
30.09594436005079
 20
29.94950687553469
 10
30.09644436005079
 20
29.94950687553469
 42
0.4142135623730951
 10
30.11144436005079
 20
29.96450687553469
 10
30.11144436005079
 20
30.04450687553469
 42
0.4142135623730951
 10
30.09644436005079
 20
30.05950687553469
 10
29.88144436005079
 20
30.05950687553469
 42
0.4142135623730951
 10
29.86644436005079
 20
30.04450687553469
 10
29.86644436005079
 20
29.96450687553469
 42
0.4142135623730951
 10
29.88144436005079
 20
29.94950687553469
 10
29.8819443600508
 20
29.94950687553469
 42
-0.9999999999999998
 10
29.8819443600508
 20
29.91850687553469
 10
29.86644436005079
 20
29.91850687553469
 10
29.86644436005079
 20
29.6685068755347
 10
29.8819443600508
 20
29.66850687553469
 42
-0.9999999999999998
 10
29.8819443600508
 20
29.63750687553469
 10
29.88144436005079
 20
29.63750687553469
 42
0.4142135623730951
 10
29.86644436005079
 20
29.62250687553469
 10
29.86644436005079
 20
29.54250687553469
 42
0.4142135623730951
 10
29.88144436005079
 20
29.52750687553469
 10
30.09644436005079
 20
29.52750687553469
 42
0.4142135623730951
 10
30.11144436005079
 20
29.54250687553469
 10
30.11144436005079
 20
29.62250687553469
 42
0.4142135623730951
 10
30.09644436005079
 20
29.63750687553469
 10
30.09594436005079
 20
29.63750687553469
 42
-0.9999999999999998
 10
30.09594436005079
 20
29.66850687553468
 10
30.1614443600508
 20
29.66850687553469
 10
30.1614443600508
 20
29.5275068755347
 42
-0.41421356237311
 10
30.0914443600508
 20
29.45750687553469
 10
29.89644436005079
 20
29.45750687553469
 42
0.4142135623730951
 10
29.87644436005079
 20
29.43750687553469
 10
29.87644436005079
 20
29.18850687553469
 42
-0.4142135623730855
 10
29.6864443600508
 20
28.99850687553469
 10
29.11653201554292
 20
28.99850687553467
 42
0.1990202627215611
 10
29.0988470087105
 20
28.99117720471489
 10
29.03906595340749
 20
28.93134649297773
 42
-0.1990202627215691
 10
28.96478892471135
 20
28.90056187553467
 10
28.95644436005079
 20
28.90056187553467
 42
0.4142135623730951
 10
28.87644436005079
 20
28.82056187553467
 10
28.87644436005079
 20
26.66826187553467
 42
0.4142135623731026
 10
28.94644436005079
 20
26.59826187553467
 10
28.97559006671713
 20
26.59826187553467
 42
0.4142135623730876
 10
29.04559006671713
 20
26.66826187553467
 10
29.04559006671713
 20
26.67893233008012
 42
0.081971439864274
 10
28.99267514498851
 20
26.83818704359249
 42
-0.2574642289896802
 10
28.99303035589235
 20
26.85629294490463
 10
29.00535327998717
 20
26.87763687553468
 42
-0.5825402726417694
 10
29.03797290820872
 20
26.87738349715629
 42
-0.1277034272886839
 10
29.11044436005079
 20
26.59826187553467
 10
29.11044436005079
 20
26.50451187553467
 10
28.78644436005079
 20
26.50451187553467
 10
28.78644436005079
 20
28.98353157250436
 10
28.88894436005079
 20
29.01956187553466
 10
28.88894436005079
 20
28.99056187553467
 10
28.9606443600508
 20
28.99056187553467
 42
0.1989123673796511
 10
28.97832202958046
 20
28.99788420600501
 10
29.04494436005079
 20
29.06456187553466
 10
29.04494436005079
 20
29.10651187553467
 42
0.3541185725307012
 10
29.02910259386715
 20
29.12607482754935
 10
28.9269443600508
 20
29.14851187553466
 10
28.88894436005079
 20
29.14851187553466
 10
28.88894436005079
 20
29.11951187553467
 10
28.87694436005079
 20
29.11951187553467
 42
-0.4142135623730951
 10
28.85694436005079
 20
29.13951187553467
 10
28.85694436005079
 20
29.16851187553467
 42
-0.4142135623730951
 10
28.87694436005079
 20
29.18851187553467
 10
29.0789393600508
 20
29.18851187553467
 42
-0.4142135623730951
 10
29.1169443600508
 20
29.15050687553467
 10
29.09494436005079
 20
29.15050687553467
 10
29.09494436005079
 20
29.11350687553467
 42
0.4142135623730951
 10
29.11994436005079
 20
29.08850687553466
 10
29.68644436005079
 20
29.08850687553469
 42
0.4142135623730886
 10
29.7864443600508
 20
29.18850687553469
 10
29.78644436005079
 20
29.6585068755347
 10
29.79644436005079
 20
29.6685068755347
 10
29.78644436005079
 20
29.6785068755347
 10
29.78644436005079
 20
29.9085068755347
 10
29.79644436005079
 20
29.91850687553469
 10
29.78644436005079
 20
29.92850687553469
 10
29.78644436005079
 20
30.76451187553467
 42
0.414213562373093
 10
29.72644436005078
 20
30.82451187553466
 10
29.07036933406591
 20
30.82451187553466
 42
0.6681640521692851
 10
29.0562266280275
 20
30.79037031034861
 10
29.1096227425988
 20
30.73696988811534
 42
-0.1989018846181274
 10
29.11694436005079
 20
30.71929293163278
 10
29.1169443600508
 20
30.66451687553467
 10
29.09494436005079
 20
30.66451687553467
 10
29.09494436005079
 20
30.60251687553466
 10
29.1169443600508
 20
30.60251687553466
 42
-0.4142135623730951
 10
29.0789393600508
 20
30.56451187553467
 10
28.87694436005079
 20
30.56451187553467
 42
-0.4142135623730951
 10
28.85694436005079
 20
30.58451187553467
 10
28.85694436005079
 20
30.61351187553467
 42
-0.4142135623730951
 10
28.87694436005079
 20
30.63351187553467
  0
LWPOLYLINE
  5
6154
330
17
100
AcDbEntity
  8
R-SWTS-DET1
100
AcDbPolyline
 90
      134
 70
     1
 43
0.0
 10
30.68394436005079
 20
26.69551187553466
 10
30.68394436005079
 20
26.72451187553467
 10
30.64594436005079
 20
26.72451187553467
 10
30.54378612623443
 20
26.70207482754934
 42
0.3541185725306862
 10
30.52794436005079
 20
26.68251187553467
 10
30.52794436005078
 20
26.64056187553466
 10
30.59456669052112
 20
26.573884206005
 42
0.1989123673796512
 10
30.61224436005078
 20
26.56656187553466
 10
30.68394436005079
 20
26.56656187553466
 10
30.68394436005079
 20
26.59556187553466
 10
30.78644436005079
 20
26.55953157250436
 10
30.78644436005079
 20
26.41451187553466
 10
28.78644436005079
 20
26.41451187553466
 10
28.78644436005079
 20
26.50451187553467
 10
29.11544436005079
 20
26.50451187553467
 10
29.11544436005079
 20
26.56652964248764
 42
-0.6681786379192535
 10
29.13251542786265
 20
26.5736007102995
 10
29.2016042626275
 20
26.50451187553467
 10
29.33257396768414
 20
26.50451187553467
 42
0.4142135623730847
 10
29.35757396768414
 20
26.52951187553467
 10
29.35757396768414
 20
26.79182841721278
 42
0.4142135623730951
 10
29.25757396768414
 20
26.89182841721278
 10
29.01271062828692
 20
26.89182841721278
 10
28.99686647720262
 20
26.86438554253197
 42
-0.4142135623730951
 10
28.97637609614585
 20
26.85889516147521
 10
28.92684545374584
 20
26.88749169119799
 42
-0.2679491924311083
 10
28.91934545374584
 20
26.90048207225475
 10
28.91934545374584
 20
26.92706418040531
 42
-0.4142135623730951
 10
28.93434545374584
 20
26.94206418040531
 10
29.25757396768414
 20
26.94206418040531
 42
-0.4142135623730968
 10
29.40757396768414
 20
26.79206418040532
 10
29.40757396768414
 20
26.52951187553467
 42
0.4142135623730847
 10
29.43257396768414
 20
26.50451187553467
 10
29.63644436005078
 20
26.50451187553467
 42
0.4142135623730971
 10
29.69644436005078
 20
26.56451187553467
 10
29.69644436005078
 20
27.17951687553464
 42
0.4142135623730821
 10
29.67644436005079
 20
27.19951687553465
 10
29.48144436005078
 20
27.19951687553465
 42
-0.4142135623730951
 10
29.41144436005078
 20
27.26951687553464
 10
29.41144436005078
 20
27.41051687553464
 10
29.47694436005078
 20
27.41051687553464
 42
-0.9999999999999998
 10
29.47694436005078
 20
27.37951687553464
 10
29.47644436005079
 20
27.37951687553464
 42
0.4142135623730951
 10
29.46144436005079
 20
27.36451687553464
 10
29.46144436005079
 20
27.28451687553465
 42
0.4142135623730951
 10
29.47644436005079
 20
27.26951687553464
 10
29.69144436005078
 20
27.26951687553464
 42
0.4142135623730951
 10
29.70644436005078
 20
27.28451687553465
 10
29.70644436005078
 20
27.36451687553464
 42
0.4142135623730951
 10
29.69144436005078
 20
27.37951687553464
 10
29.69094436005078
 20
27.37951687553464
 42
-0.9999999999999998
 10
29.69094436005078
 20
27.41051687553464
 10
29.70644436005078
 20
27.41051687553464
 10
29.70644436005078
 20
27.66051687553463
 10
29.69094436005078
 20
27.66051687553464
 42
-0.9999999999999998
 10
29.69094436005078
 20
27.69151687553464
 10
29.69144436005078
 20
27.69151687553464
 42
0.4142135623730951
 10
29.70644436005078
 20
27.70651687553464
 10
29.70644436005078
 20
27.78651687553464
 42
0.4142135623730951
 10
29.69144436005078
 20
27.80151687553464
 10
29.47644436005079
 20
27.80151687553464
 42
0.4142135623730951
 10
29.46144436005079
 20
27.78651687553464
 10
29.46144436005079
 20
27.70651687553464
 42
0.4142135623730951
 10
29.47644436005079
 20
27.69151687553464
 10
29.47694436005078
 20
27.69151687553464
 42
-0.9999999999999998
 10
29.47694436005078
 20
27.66051687553465
 10
29.41144436005078
 20
27.66051687553464
 10
29.41144436005077
 20
27.80151687553463
 42
-0.41421356237311
 10
29.48144436005078
 20
27.87151687553464
 10
29.67644436005079
 20
27.87151687553464
 42
0.4142135623730951
 10
29.69644436005078
 20
27.89151687553464
 10
29.69644436005078
 20
28.14051687553464
 42
-0.4142135623730855
 10
29.88644436005078
 20
28.33051687553464
 10
30.45635670455866
 20
28.33051687553466
 42
0.1990202627215611
 10
30.47404171139107
 20
28.33784654635444
 10
30.53382276669409
 20
28.3976772580916
 42
-0.1990202627215691
 10
30.60809979539023
 20
28.42846187553467
 10
30.61644436005079
 20
28.42846187553467
 42
0.4142135623730951
 10
30.69644436005079
 20
28.50846187553467
 10
30.69644436005079
 20
30.66076187553466
 42
0.4142135623731026
 10
30.62644436005079
 20
30.73076187553466
 10
30.59729865338444
 20
30.73076187553466
 42
0.4142135623730876
 10
30.52729865338445
 20
30.66076187553466
 10
30.52729865338445
 20
30.65009142098921
 42
0.081971439864274
 10
30.58021357511307
 20
30.49083670747684
 42
-0.2574642289896802
 10
30.57985836420922
 20
30.4727308061647
 10
30.5675354401144
 20
30.45138687553465
 42
-0.5825402726417694
 10
30.53491581189286
 20
30.45164025391304
 42
-0.1277034272886839
 10
30.46244436005079
 20
30.73076187553467
 10
30.46244436005079
 20
30.82451187553466
 10
30.78644436005079
 20
30.82451187553466
 10
30.78644436005079
 20
28.34549217856497
 10
30.68394436005079
 20
28.30946187553467
 10
30.68394436005079
 20
28.33846187553466
 10
30.61224436005078
 20
28.33846187553466
 42
0.1989123673796511
 10
30.59456669052112
 20
28.33113954506432
 10
30.52794436005078
 20
28.26446187553467
 10
30.52794436005078
 20
28.22251187553467
 42
0.3541185725307012
 10
30.54378612623443
 20
28.20294892351999
 10
30.64594436005079
 20
28.18051187553466
 10
30.68394436005079
 20
28.18051187553466
 10
30.68394436005079
 20
28.20951187553467
 10
30.69594436005079
 20
28.20951187553467
 42
-0.4142135623730951
 10
30.71594436005078
 20
28.18951187553466
 10
30.71594436005078
 20
28.16051187553467
 42
-0.4142135623730951
 10
30.69594436005079
 20
28.14051187553467
 10
30.49394936005078
 20
28.14051187553467
 42
-0.4142135623730951
 10
30.45594436005078
 20
28.17851687553466
 10
30.47794436005079
 20
28.17851687553466
 10
30.47794436005079
 20
28.21551687553466
 42
0.4142135623730951
 10
30.45294436005079
 20
28.24051687553467
 10
29.88644436005078
 20
28.24051687553465
 42
0.4142135623730886
 10
29.78644436005079
 20
28.14051687553464
 10
29.78644436005079
 20
27.67051687553463
 10
29.77644436005079
 20
27.66051687553463
 10
29.78644436005079
 20
27.65051687553464
 10
29.78644436005079
 20
27.42051687553463
 10
29.77644436005079
 20
27.41051687553464
 10
29.78644436005079
 20
27.40051687553464
 10
29.78644436005079
 20
26.56451187553467
 42
0.414213562373093
 10
29.84644436005079
 20
26.50451187553467
 10
30.50251938603568
 20
26.50451187553467
 42
0.6681640521692851
 10
30.51666209207407
 20
26.53865344072072
 10
30.46326597750278
 20
26.59205386295399
 42
-0.1989018846181274
 10
30.45594436005079
 20
26.60973081943656
 10
30.45594436005078
 20
26.66450687553466
 10
30.47794436005079
 20
26.66450687553467
 10
30.47794436005079
 20
26.72650687553467
 10
30.45594436005078
 20
26.72650687553467
 42
-0.4142135623730951
 10
30.49394936005078
 20
26.76451187553466
 10
30.69594436005079
 20
26.76451187553466
 42
-0.4142135623730951
 10
30.71594436005078
 20
26.74451187553466
 10
30.71594436005078
 20
26.71551187553466
 42
-0.4142135623730951
 10
30.69594436005079
 20
26.69551187553466
  0
LINE
  5
6155
330
17
100
AcDbEntity
  8
R-SWTS-DET3
100
AcDbLine
 10
29.16144436005078
 20
30.37607026299981
 30
0.0
 11
26.78644436005078
 21
30.37607026299981
 31
0.0
  0
LINE
  5
6156
330
17
100
AcDbEntity
  8
R-SWTS-DET3
100
AcDbLine
 10
29.16144436005078
 20
30.12607026299981
 30
0.0
 11
26.78644436005078
 21
30.12607026299981
 31
0.0
  0
LINE
  5
6157
330
17
100
AcDbEntity
  8
R-SWTS-DET3
100
AcDbLine
 10
29.16144436005078
 20
29.62607026299981
 30
0.0
 11
26.78644436005078
 21
29.62607026299981
 31
0.0
  0
LINE
  5
6158
330
17
100
AcDbEntity
  8
R-SWTS-DET3
100
AcDbLine
 10
29.16144436005078
 20
29.37607026299981
 30
0.0
 11
26.78644436005078
 21
29.37607026299981
 31
0.0
  0
LINE
  5
6159
330
17
100
AcDbEntity
  8
R-SWTS-DET2
100
AcDbLine
 10
28.78644436005078
 20
30.89337397745465
 30
0.0
 11
26.78644436005078
 21
30.89337397745465
 31
0.0
  0
LINE
  5
615A
330
17
100
AcDbEntity
  8
R-SWTS-DET2
100
AcDbLine
 10
28.78644436005078
 20
28.85876654854497
 30
0.0
 11
26.78644436005078
 21
28.85876654854497
 31
0.0
  0
LINE
  5
615B
330
17
100
AcDbEntity
  8
R-SWTS-DET3
100
AcDbLine
 10
29.16144436005078
 20
30.37607026299981
 30
0.0
 11
29.16144436005078
 21
29.37607026299981
 31
0.0
  0
LINE
  5
615C
330
17
100
AcDbEntity
  8
R-SWTS-DET3
100
AcDbLine
 10
28.91144436005078
 20
30.12607026299981
 30
0.0
 11
28.91144436005078
 21
29.62607026299981
 31
0.0
  0
LINE
  5
615D
330
17
100
AcDbEntity
  8
R-SWTS-DET3
100
AcDbLine
 10
30.4114443600508
 20
26.95295348806952
 30
0.0
 11
32.78644436005079
 21
26.95295348806952
 31
0.0
  0
LINE
  5
615E
330
17
100
AcDbEntity
  8
R-SWTS-DET3
100
AcDbLine
 10
30.4114443600508
 20
27.20295348806952
 30
0.0
 11
32.78644436005079
 21
27.20295348806952
 31
0.0
  0
LINE
  5
615F
330
17
100
AcDbEntity
  8
R-SWTS-DET3
100
AcDbLine
 10
30.4114443600508
 20
27.70295348806952
 30
0.0
 11
32.78644436005079
 21
27.70295348806952
 31
0.0
  0
LINE
  5
6160
330
17
100
AcDbEntity
  8
R-SWTS-DET3
100
AcDbLine
 10
30.4114443600508
 20
27.95295348806952
 30
0.0
 11
32.78644436005079
 21
27.95295348806952
 31
0.0
  0
LINE
  5
6161
330
17
100
AcDbEntity
  8
R-SWTS-DET2
100
AcDbLine
 10
30.7864443600508
 20
26.43564977361468
 30
0.0
 11
32.78644436005079
 21
26.43564977361468
 31
0.0
  0
LINE
  5
6162
330
17
100
AcDbEntity
  8
R-SWTS-DET2
100
AcDbLine
 10
30.7864443600508
 20
28.47025720252437
 30
0.0
 11
32.7864443600508
 21
28.47025720252437
 31
0.0
  0
LINE
  5
6163
330
17
100
AcDbEntity
  8
R-SWTS-DET3
100
AcDbLine
 10
30.4114443600508
 20
26.95295348806952
 30
0.0
 11
30.4114443600508
 21
27.95295348806952
 31
0.0
  0
LINE
  5
6164
330
17
100
AcDbEntity
  8
R-SWTS-DET3
100
AcDbLine
 10
30.6614443600508
 20
27.20295348806952
 30
0.0
 11
30.6614443600508
 21
27.70295348806952
 31
0.0
  0
LWPOLYLINE
  5
6165
330
17
100
AcDbEntity
  8
R-SWTS-DET2
100
AcDbPolyline
 90
       31
 70
     1
 43
0.0
 10
30.67244233188635
 20
26.57946489221572
 10
30.67731663248431
 20
26.60628141875466
 10
30.78455123016606
 20
26.57215129463353
 10
30.78942552904475
 20
26.51120464397346
 10
30.7864443600508
 20
26.43564977361468
 10
30.81745390267204
 20
26.44574031517299
 42
0.1257100272134179
 10
30.86919623026569
 20
26.67773171719505
 42
-0.2260837189018228
 10
30.91891408890979
 20
26.83131727762666
 10
31.02985470707015
 20
26.92687258728635
 42
0.6449762263124317
 10
31.01811336459648
 20
26.95280687930453
 10
30.8888764289671
 20
26.95122714227648
 42
0.1518691569180708
 10
30.84444127461784
 20
26.93487436568015
 10
30.78451549534936
 20
26.8963711773849
 42
-0.0293454671788447
 10
30.73263285215674
 20
26.878976288182
 10
30.61083884231969
 20
26.86174599859847
 42
-0.6538117075652882
 10
30.60385210535434
 20
26.88198680950133
 10
30.76910102284426
 20
26.92607855672366
 42
0.8886355728344963
 10
30.76703959194487
 20
26.95122714227648
 10
30.63279397155221
 20
26.95122714227648
 42
0.0642046489364144
 10
30.44417771484493
 20
26.90879468036705
 42
0.6896355001773956
 10
30.44417771484492
 20
26.80618594997895
 42
0.0703560868358924
 10
30.63279397155221
 20
26.76495348806952
 10
30.72849678188585
 20
26.76495348806952
 10
30.72849678188585
 20
26.69160673009293
 10
30.67487948218533
 20
26.66966593527546
 10
30.67000518330664
 20
26.70867179318894
 10
30.63344793397973
 20
26.67454166699693
 10
30.61151358472744
 20
26.70623392732821
 10
30.5578962867462
 20
26.64528727459726
 10
30.62369933450308
 20
26.58921635565866
 10
30.63344793397973
 20
26.61359501633686
  0
LWPOLYLINE
  5
6166
330
17
100
AcDbEntity
  8
R-SWTS-DET2
100
AcDbPolyline
 90
       31
 70
     1
 43
0.0
 10
30.67244233188635
 20
28.32644208392331
 10
30.67731663248431
 20
28.29962555738438
 10
30.78455123016606
 20
28.33375568150551
 10
30.78942552904475
 20
28.39470233216558
 10
30.7864443600508
 20
28.47025720252437
 10
30.81745390267204
 20
28.46016666096605
 42
-0.1257100272134179
 10
30.86919623026569
 20
28.22817525894399
 42
0.2260837189018228
 10
30.91891408890979
 20
28.07458969851238
 10
31.02985470707015
 20
27.97903438885269
 42
-0.6449762263124317
 10
31.01811336459648
 20
27.95310009683451
 10
30.8888764289671
 20
27.95467983386256
 42
-0.1518691569180708
 10
30.84444127461784
 20
27.97103261045889
 10
30.78451549534936
 20
28.00953579875415
 42
0.0293454671788447
 10
30.73263285215674
 20
28.02693068795704
 10
30.61083884231969
 20
28.04416097754057
 42
0.6538117075652882
 10
30.60385210535434
 20
28.02392016663771
 10
30.76910102284426
 20
27.97982841941538
 42
-0.8886355728344963
 10
30.76703959194487
 20
27.95467983386256
 10
30.63279397155221
 20
27.95467983386256
 42
-0.0642046489364144
 10
30.44417771484493
 20
27.99711229577198
 42
-0.6896355001773956
 10
30.44417771484492
 20
28.09972102616009
 42
-0.0703560868358924
 10
30.63279397155221
 20
28.14095348806952
 10
30.72849678188585
 20
28.14095348806952
 10
30.72849678188585
 20
28.21430024604611
 10
30.67487948218533
 20
28.23624104086358
 10
30.67000518330664
 20
28.1972351829501
 10
30.63344793397973
 20
28.23136530914212
 10
30.61151358472744
 20
28.19967304881083
 10
30.5578962867462
 20
28.26061970154178
 10
30.62369933450308
 20
28.31669062048039
 10
30.63344793397973
 20
28.29231195980219
  0
LWPOLYLINE
  5
6167
330
17
100
AcDbEntity
  8
R-SWTS-DET2
100
AcDbPolyline
 90
       31
 70
     1
 43
0.0
 10
28.90044638821523
 20
30.74955885885361
 10
28.89557208761726
 20
30.72274233231468
 10
28.78833748993552
 20
30.75687245643581
 10
28.78346319105683
 20
30.81781910709587
 10
28.78644436005078
 20
30.89337397745466
 10
28.75543481742954
 20
30.88328343589634
 42
0.1257100272134179
 10
28.70369248983589
 20
30.65129203387428
 42
-0.2260837189018228
 10
28.65397463119179
 20
30.49770647344268
 10
28.54303401303143
 20
30.40215116378298
 42
0.6449762263124317
 10
28.5547753555051
 20
30.3762168717648
 10
28.68401229113448
 20
30.37779660879285
 42
0.1518691569180708
 10
28.72844744548374
 20
30.39414938538918
 10
28.78837322475222
 20
30.43265257368444
 42
-0.0293454671788447
 10
28.84025586794484
 20
30.45004746288733
 10
28.96204987778188
 20
30.46727775247086
 42
-0.6538117075652882
 10
28.96903661474724
 20
30.447036941568
 10
28.80378769725732
 20
30.40294519434567
 42
0.8886355728344963
 10
28.80584912815671
 20
30.37779660879285
 10
28.94009474854937
 20
30.37779660879285
 42
0.0642046489364144
 10
29.12871100525665
 20
30.42022907070228
 42
0.6896355001773956
 10
29.12871100525666
 20
30.52283780109038
 42
0.0703560868358924
 10
28.94009474854937
 20
30.56407026299981
 10
28.84439193821573
 20
30.56407026299981
 10
28.84439193821573
 20
30.6374170209764
 10
28.89800923791625
 20
30.65935781579387
 10
28.90288353679494
 20
30.6203519578804
 10
28.93944078612184
 20
30.65448208407241
 10
28.96137513537414
 20
30.62278982374112
 10
29.01499243335538
 20
30.68373647647207
 10
28.9491893855985
 20
30.73980739541068
 10
28.93944078612184
 20
30.71542873473248
  0
LWPOLYLINE
  5
6168
330
17
100
AcDbEntity
  8
R-SWTS-DET2
100
AcDbPolyline
 90
       31
 70
     1
 43
0.0
 10
28.90044638821523
 20
29.00258166714602
 10
28.89557208761726
 20
29.02939819368496
 10
28.78833748993552
 20
28.99526806956382
 10
28.78346319105683
 20
28.93432141890375
 10
28.78644436005078
 20
28.85876654854497
 10
28.75543481742954
 20
28.86885709010329
 42
-0.1257100272134179
 10
28.70369248983589
 20
29.10084849212534
 42
0.2260837189018228
 10
28.65397463119179
 20
29.25443405255695
 10
28.54303401303143
 20
29.34998936221664
 42
-0.6449762263124317
 10
28.5547753555051
 20
29.37592365423483
 10
28.68401229113448
 20
29.37434391720677
 42
-0.1518691569180708
 10
28.72844744548374
 20
29.35799114061044
 10
28.78837322475222
 20
29.31948795231519
 42
0.0293454671788447
 10
28.84025586794484
 20
29.30209306311229
 10
28.96204987778188
 20
29.28486277352877
 42
0.6538117075652882
 10
28.96903661474724
 20
29.30510358443163
 10
28.80378769725732
 20
29.34919533165395
 42
-0.8886355728344963
 10
28.80584912815671
 20
29.37434391720677
 10
28.94009474854937
 20
29.37434391720677
 42
-0.0642046489364144
 10
29.12871100525665
 20
29.33191145529735
 42
-0.6896355001773956
 10
29.12871100525666
 20
29.22930272490924
 42
-0.0703560868358924
 10
28.94009474854937
 20
29.18807026299982
 10
28.84439193821573
 20
29.18807026299982
 10
28.84439193821573
 20
29.11472350502322
 10
28.89800923791625
 20
29.09278271020575
 10
28.90288353679494
 20
29.13178856811923
 10
28.93944078612184
 20
29.09765844192722
 10
28.96137513537414
 20
29.1293507022585
 10
29.01499243335538
 20
29.06840404952755
 10
28.9491893855985
 20
29.01233313058894
 10
28.93944078612184
 20
29.03671179126715
  0
LINE
  5
6169
330
17
100
AcDbEntity
  8
R-ANNO-DIMS
100
AcDbLine
 10
28.78644436005079
 20
26.03951187553467
 30
0.0
 11
28.78644436005079
 21
24.52251187553467
 31
0.0
  0
LINE
  5
616A
330
17
100
AcDbEntity
  8
R-ANNO-DIMS
100
AcDbLine
 10
28.53644436005079
 20
24.70251187553467
 30
0.0
 11
27.03643436005078
 21
24.70251187553467
 31
0.0
  0
SOLID
  5
616B
330
17
100
AcDbEntity
  8
R-ANNO-DIMS
100
AcDbTrace
 10
28.53644436005079
 20
24.74417854220134
 30
0.0
 11
28.53644436005079
 21
24.66084520886801
 31
0.0
 12
28.78644436005079
 22
24.70251187553467
 32
0.0
 13
28.78644436005079
 23
24.70251187553467
 33
0.0
  0
SOLID
  5
616C
330
17
100
AcDbEntity
  8
R-ANNO-DIMS
100
AcDbTrace
 10
27.03643436005078
 20
24.74417854220134
 30
0.0
 11
27.03643436005078
 21
24.66084520886801
 31
0.0
 12
26.78643436005078
 22
24.70251187553467
 32
0.0
 13
26.78643436005078
 23
24.70251187553467
 33
0.0
  0
MTEXT
  5
616D
330
17
100
AcDbEntity
  8
R-ANNO-DIMS
100
AcDbMText
 10
27.78643936005078
 20
24.92751187553467
 30
0.0
 40
0.25
 41
0.0
 71
     5
 72
     1
  1
\A1;DLO
 73
     1
 44
1.0
1001
ACAD
1000
MTEXTBEGIN
1070
    73
1070
     1
1070
    44
1040
1.0
1070
    74
1070
     0
1000
MTEXTEND
  0
LINE
  5
616E
330
17
100
AcDbEntity
  8
R-ANNO-DIMS
100
AcDbLine
 10
30.78644436005079
 20
26.03951187553467
 30
0.0
 11
30.78644436005079
 21
24.52251187553467
 31
0.0
  0
LINE
  5
616F
330
17
100
AcDbEntity
  8
R-ANNO-DIMS
100
AcDbLine
 10
31.03644436005079
 20
24.70251187553467
 30
0.0
 11
32.53645436005079
 21
24.70251187553467
 31
0.0
  0
SOLID
  5
6170
330
17
100
AcDbEntity
  8
R-ANNO-DIMS
100
AcDbTrace
 10
31.03644436005079
 20
24.74417854220134
 30
0.0
 11
31.03644436005079
 21
24.66084520886801
 31
0.0
 12
30.78644436005079
 22
24.70251187553467
 32
0.0
 13
30.78644436005079
 23
24.70251187553467
 33
0.0
  0
SOLID
  5
6171
330
17
100
AcDbEntity
  8
R-ANNO-DIMS
100
AcDbTrace
 10
32.53645436005079
 20
24.74417854220134
 30
0.0
 11
32.53645436005079
 21
24.66084520886801
 31
0.0
 12
32.78645436005079
 22
24.70251187553467
 32
0.0
 13
32.78645436005079
 23
24.70251187553467
 33
0.0
  0
MTEXT
  5
6172
330
17
100
AcDbEntity
  8
R-ANNO-DIMS
100
AcDbMText
 10
31.78644936005079
 20
24.92751187553467
 30
0.0
 40
0.25
 41
0.0
 71
     5
 72
     1
  1
\A1;DLO
 73
     1
 44
1.0
1001
ACAD
1000
MTEXTBEGIN
1070
    73
1070
     1
1070
    44
1040
1.0
1070
    74
1070
     0
1000
MTEXTEND
  0
LINE
  5
6173
330
17
100
AcDbEntity
  8
R-ANNO-DIMS
100
AcDbLine
 10
28.78644436005079
 20
26.03951187553467
 30
0.0
 11
28.78644436005079
 21
24.52251187553467
 31
0.0
  0
LINE
  5
6174
330
17
100
AcDbEntity
  8
R-ANNO-DIMS
100
AcDbLine
 10
30.78644436005079
 20
26.03951187553467
 30
0.0
 11
30.78644436005079
 21
24.52251187553467
 31
0.0
  0
LINE
  5
6175
330
17
100
AcDbEntity
  8
R-ANNO-DIMS
100
AcDbLine
 10
29.03644436005079
 20
24.70251187553467
 30
0.0
 11
30.53644436005079
 21
24.70251187553467
 31
0.0
  0
SOLID
  5
6176
330
17
100
AcDbEntity
  8
R-ANNO-DIMS
100
AcDbTrace
 10
29.03644436005079
 20
24.74417854220134
 30
0.0
 11
29.03644436005079
 21
24.66084520886801
 31
0.0
 12
28.78644436005079
 22
24.70251187553467
 32
0.0
 13
28.78644436005079
 23
24.70251187553467
 33
0.0
  0
SOLID
  5
6177
330
17
100
AcDbEntity
  8
R-ANNO-DIMS
100
AcDbTrace
 10
30.53644436005079
 20
24.74417854220134
 30
0.0
 11
30.53644436005079
 21
24.66084520886801
 31
0.0
 12
30.78644436005079
 22
24.70251187553467
 32
0.0
 13
30.78644436005079
 23
24.70251187553467
 33
0.0
  0
MTEXT
  5
6178
330
17
100
AcDbEntity
  8
R-ANNO-DIMS
100
AcDbMText
 10
29.78644436005079
 20
24.92751187553467
 30
0.0
 40
0.25
 41
0.0
 71
     5
 72
     1
  1
\A1;2"
 73
     1
 44
1.0
1001
ACAD
1000
MTEXTBEGIN
1070
    73
1070
     1
1070
    44
1040
1.0
1070
    74
1070
     0
1000
MTEXTEND
  0
LWPOLYLINE
  5
6179
330
17
100
AcDbEntity
  8
R-SWTS-DET1
100
AcDbPolyline
 90
        6
 70
     0
 43
0.0
 10
16.06402193478419
 20
31.16451187553467
 10
16.06402193478419
 20
28.76452187553468
 10
15.86404193478419
 20
28.71450187553467
 10
16.26402193478419
 20
28.61452187553467
 10
16.06402193478419
 20
28.56452187553467
 10
16.06402193478419
 20
26.16451187553467
  0
LWPOLYLINE
  5
617A
330
17
100
AcDbEntity
  8
R-SWTS-DET1
100
AcDbPolyline
 90
        6
 70
     0
 43
0.0
 10
22.0640419347842
 20
26.16451187553467
 10
22.0640419347842
 20
28.56450187553467
 10
22.26402193478421
 20
28.61452187553467
 10
21.8640419347842
 20
28.71450187553467
 10
22.0640419347842
 20
28.76450187553467
 10
22.0640419347842
 20
31.16451187553467
  0
LINE
  5
617B
330
17
100
AcDbEntity
  8
R-SWTS-DET1
100
AcDbLine
 10
20.0640319347842
 20
26.41451187553467
 30
0.0
 11
22.0640419347842
 21
26.41451187553467
 31
0.0
  0
LINE
  5
617C
330
17
100
AcDbEntity
  8
R-SWTS-DET1
100
AcDbLine
 10
20.0640319347842
 20
30.91451187553467
 30
0.0
 11
22.0640419347842
 21
30.91451187553467
 31
0.0
  0
LINE
  5
617D
330
17
100
AcDbEntity
  8
R-SWTS-DET1
100
AcDbLine
 10
18.0640319347842
 20
30.91451187553467
 30
0.0
 11
16.06402193478419
 21
30.91451187553467
 31
0.0
  0
LINE
  5
617E
330
17
100
AcDbEntity
  8
R-SWTS-DET1
100
AcDbLine
 10
18.0640319347842
 20
26.41451187553467
 30
0.0
 11
16.06402193478419
 21
26.41451187553467
 31
0.0
  0
TEXT
  5
617F
330
17
100
AcDbEntity
  8
PART_NUMBERS
100
AcDbText
 10
16.23685399167479
 20
31.41580695473391
 30
0.0
 40
0.25
  1
451VG069 TRANSITION MULLION
100
AcDbText
  0
LWPOLYLINE
  5
6180
330
17
100
AcDbEntity
  8
R-SWTS-DET1
100
AcDbPolyline
 90
      134
 70
     1
 43
0.0
 10
19.96153193478419
 20
30.63351187553467
 10
19.96153193478419
 20
30.60451187553467
 10
19.92353193478419
 20
30.60451187553467
 10
19.82137370096784
 20
30.62694892352
 42
-0.3541185725306862
 10
19.80553193478419
 20
30.64651187553467
 10
19.80553193478419
 20
30.68846187553467
 10
19.87215426525453
 20
30.75513954506434
 42
-0.1989123673796512
 10
19.88983193478419
 20
30.76246187553468
 10
19.96153193478419
 20
30.76246187553468
 10
19.96153193478419
 20
30.73346187553467
 10
20.0640319347842
 20
30.76949217856498
 10
20.0640319347842
 20
30.91451187553467
 10
18.0640319347842
 20
30.91451187553468
 10
18.0640319347842
 20
30.82451187553467
 10
18.3930319347842
 20
30.82451187553467
 10
18.3930319347842
 20
30.76249410858171
 42
0.6681786379192535
 10
18.41010300259606
 20
30.75542304076984
 10
18.4791918373609
 20
30.82451187553467
 10
18.61016154241754
 20
30.82451187553467
 42
-0.4142135623730847
 10
18.63516154241755
 20
30.79951187553467
 10
18.63516154241755
 20
30.53719533385656
 42
-0.4142135623730951
 10
18.53516154241755
 20
30.43719533385657
 10
18.29029820302032
 20
30.43719533385657
 10
18.27445405193602
 20
30.46463820853737
 42
0.4142135623730951
 10
18.25396367087926
 20
30.47012858959413
 10
18.20443302847925
 20
30.44153205987135
 42
0.2679491924311083
 10
18.19693302847925
 20
30.42854167881458
 10
18.19693302847925
 20
30.40195957066403
 42
0.4142135623730951
 10
18.21193302847925
 20
30.38695957066403
 10
18.53516154241754
 20
30.38695957066403
 42
0.4142135623730968
 10
18.68516154241754
 20
30.53695957066402
 10
18.68516154241754
 20
30.79951187553467
 42
-0.4142135623730847
 10
18.71016154241754
 20
30.82451187553467
 10
18.91403193478419
 20
30.82451187553467
 42
-0.4142135623730971
 10
18.97403193478419
 20
30.76451187553467
 10
18.97403193478419
 20
30.1495068755347
 42
-0.4142135623730821
 10
18.95403193478419
 20
30.1295068755347
 10
18.75903193478419
 20
30.1295068755347
 42
0.4142135623730951
 10
18.68903193478419
 20
30.0595068755347
 10
18.68903193478419
 20
29.91850687553469
 10
18.75453193478418
 20
29.91850687553469
 42
0.9999999999999998
 10
18.75453193478418
 20
29.94950687553469
 10
18.75403193478419
 20
29.94950687553469
 42
-0.4142135623730951
 10
18.73903193478419
 20
29.96450687553469
 10
18.73903193478419
 20
30.0445068755347
 42
-0.4142135623730951
 10
18.75403193478419
 20
30.0595068755347
 10
18.96903193478419
 20
30.0595068755347
 42
-0.4142135623730951
 10
18.98403193478419
 20
30.0445068755347
 10
18.98403193478419
 20
29.96450687553469
 42
-0.4142135623730951
 10
18.96903193478419
 20
29.94950687553469
 10
18.96853193478418
 20
29.94950687553469
 42
0.9999999999999998
 10
18.96853193478418
 20
29.91850687553471
 10
18.98403193478419
 20
29.91850687553471
 10
18.98403193478419
 20
29.66850687553471
 10
18.96853193478418
 20
29.6685068755347
 42
0.9999999999999998
 10
18.96853193478418
 20
29.6375068755347
 10
18.96903193478419
 20
29.6375068755347
 42
-0.4142135623730951
 10
18.98403193478419
 20
29.6225068755347
 10
18.98403193478419
 20
29.5425068755347
 42
-0.4142135623730951
 10
18.96903193478419
 20
29.5275068755347
 10
18.75403193478419
 20
29.5275068755347
 42
-0.4142135623730951
 10
18.73903193478419
 20
29.5425068755347
 10
18.73903193478419
 20
29.6225068755347
 42
-0.4142135623730951
 10
18.75403193478419
 20
29.6375068755347
 10
18.75453193478418
 20
29.6375068755347
 42
0.9999999999999998
 10
18.75453193478418
 20
29.66850687553469
 10
18.68903193478419
 20
29.6685068755347
 10
18.68903193478418
 20
29.5275068755347
 42
0.41421356237311
 10
18.75903193478418
 20
29.4575068755347
 10
18.95403193478419
 20
29.4575068755347
 42
-0.4142135623730951
 10
18.97403193478419
 20
29.4375068755347
 10
18.97403193478419
 20
29.1885068755347
 42
0.4142135623730855
 10
19.16403193478418
 20
28.99850687553469
 10
19.73394427929207
 20
28.99850687553467
 42
-0.1990202627215611
 10
19.75162928612448
 20
28.9911772047149
 10
19.81141034142749
 20
28.93134649297774
 42
0.1990202627215691
 10
19.88568737012363
 20
28.90056187553468
 10
19.8940319347842
 20
28.90056187553468
 42
-0.4142135623730951
 10
19.9740319347842
 20
28.82056187553467
 10
19.9740319347842
 20
26.66826187553468
 42
-0.4142135623731026
 10
19.90403193478419
 20
26.59826187553468
 10
19.87488622811785
 20
26.59826187553468
 42
-0.4142135623730876
 10
19.80488622811785
 20
26.66826187553468
 10
19.80488622811785
 20
26.67893233008012
 42
-0.081971439864274
 10
19.85780114984647
 20
26.83818704359249
 42
0.2574642289896802
 10
19.85744593894263
 20
26.85629294490464
 10
19.8451230148478
 20
26.87763687553469
 42
0.5825402726417694
 10
19.81250338662626
 20
26.8773834971563
 42
0.1277034272886839
 10
19.74003193478419
 20
26.59826187553467
 10
19.7400319347842
 20
26.50451187553468
 10
20.0640319347842
 20
26.50451187553468
 10
20.0640319347842
 20
28.98353157250437
 10
19.96153193478419
 20
29.01956187553467
 10
19.96153193478419
 20
28.99056187553468
 10
19.88983193478419
 20
28.99056187553468
 42
-0.1989123673796511
 10
19.87215426525453
 20
28.99788420600501
 10
19.80553193478419
 20
29.06456187553467
 10
19.80553193478419
 20
29.10651187553467
 42
-0.3541185725307012
 10
19.82137370096783
 20
29.12607482754935
 10
19.92353193478419
 20
29.14851187553468
 10
19.96153193478419
 20
29.14851187553468
 10
19.96153193478419
 20
29.11951187553467
 10
19.97353193478419
 20
29.11951187553467
 42
0.4142135623730951
 10
19.99353193478419
 20
29.13951187553467
 10
19.99353193478419
 20
29.16851187553467
 42
0.4142135623730951
 10
19.97353193478419
 20
29.18851187553467
 10
19.77153693478419
 20
29.18851187553467
 42
0.4142135623730951
 10
19.73353193478419
 20
29.15050687553467
 10
19.75553193478419
 20
29.15050687553467
 10
19.75553193478419
 20
29.11350687553468
 42
-0.4142135623730951
 10
19.73053193478419
 20
29.08850687553468
 10
19.16403193478419
 20
29.08850687553469
 42
-0.4142135623730886
 10
19.06403193478419
 20
29.1885068755347
 10
19.0640319347842
 20
29.6585068755347
 10
19.05403193478419
 20
29.66850687553471
 10
19.06403193478419
 20
29.6785068755347
 10
19.0640319347842
 20
29.9085068755347
 10
19.05403193478419
 20
29.91850687553471
 10
19.0640319347842
 20
29.9285068755347
 10
19.0640319347842
 20
30.76451187553467
 42
-0.414213562373093
 10
19.1240319347842
 20
30.82451187553467
 10
19.78010696076908
 20
30.82451187553467
 42
-0.6681640521692851
 10
19.79424966680748
 20
30.79037031034861
 10
19.74085355223619
 20
30.73696988811535
 42
0.1989018846181274
 10
19.73353193478419
 20
30.71929293163278
 10
19.73353193478419
 20
30.66451687553467
 10
19.75553193478419
 20
30.66451687553467
 10
19.75553193478419
 20
30.60251687553467
 10
19.73353193478419
 20
30.60251687553467
 42
0.4142135623730951
 10
19.77153693478419
 20
30.56451187553467
 10
19.97353193478419
 20
30.56451187553467
 42
0.4142135623730951
 10
19.99353193478419
 20
30.58451187553468
 10
19.99353193478419
 20
30.61351187553467
 42
0.4142135623730951
 10
19.97353193478419
 20
30.63351187553467
  0
LWPOLYLINE
  5
6181
330
17
100
AcDbEntity
  8
R-SWTS-DET1
100
AcDbPolyline
 90
      134
 70
     1
 43
0.0
 10
18.1665319347842
 20
26.69551187553467
 10
18.1665319347842
 20
26.72451187553467
 10
18.2045319347842
 20
26.72451187553467
 10
18.30669016860055
 20
26.70207482754935
 42
-0.3541185725306862
 10
18.3225319347842
 20
26.68251187553468
 10
18.3225319347842
 20
26.64056187553467
 10
18.25590960431386
 20
26.57388420600501
 42
-0.1989123673796512
 10
18.2382319347842
 20
26.56656187553467
 10
18.1665319347842
 20
26.56656187553467
 10
18.1665319347842
 20
26.59556187553467
 10
18.0640319347842
 20
26.55953157250437
 10
18.0640319347842
 20
26.41451187553467
 10
20.0640319347842
 20
26.41451187553467
 10
20.0640319347842
 20
26.50451187553468
 10
19.73503193478419
 20
26.50451187553468
 10
19.73503193478419
 20
26.56652964248764
 42
0.6681786379192535
 10
19.71796086697233
 20
26.5736007102995
 10
19.64887203220749
 20
26.50451187553468
 10
19.51790232715084
 20
26.50451187553468
 42
-0.4142135623730847
 10
19.49290232715084
 20
26.52951187553468
 10
19.49290232715084
 20
26.79182841721278
 42
-0.4142135623730951
 10
19.59290232715084
 20
26.89182841721278
 10
19.83776566654806
 20
26.89182841721278
 10
19.85360981763237
 20
26.86438554253198
 42
0.4142135623730951
 10
19.87410019868913
 20
26.85889516147521
 10
19.92363084108914
 20
26.88749169119799
 42
0.2679491924311083
 10
19.93113084108914
 20
26.90048207225476
 10
19.93113084108914
 20
26.92706418040532
 42
0.4142135623730951
 10
19.91613084108914
 20
26.94206418040532
 10
19.59290232715085
 20
26.94206418040532
 42
0.4142135623730968
 10
19.44290232715085
 20
26.79206418040533
 10
19.44290232715085
 20
26.52951187553468
 42
-0.4142135623730847
 10
19.41790232715085
 20
26.50451187553468
 10
19.2140319347842
 20
26.50451187553468
 42
-0.4142135623730971
 10
19.1540319347842
 20
26.56451187553468
 10
19.1540319347842
 20
27.17951687553465
 42
-0.4142135623730821
 10
19.1740319347842
 20
27.19951687553465
 10
19.3690319347842
 20
27.19951687553465
 42
0.4142135623730951
 10
19.4390319347842
 20
27.26951687553465
 10
19.4390319347842
 20
27.41051687553465
 10
19.3735319347842
 20
27.41051687553465
 42
0.9999999999999998
 10
19.3735319347842
 20
27.37951687553465
 10
19.3740319347842
 20
27.37951687553465
 42
-0.4142135623730951
 10
19.3890319347842
 20
27.36451687553465
 10
19.3890319347842
 20
27.28451687553465
 42
-0.4142135623730951
 10
19.3740319347842
 20
27.26951687553465
 10
19.1590319347842
 20
27.26951687553465
 42
-0.4142135623730951
 10
19.1440319347842
 20
27.28451687553465
 10
19.1440319347842
 20
27.36451687553465
 42
-0.4142135623730951
 10
19.1590319347842
 20
27.37951687553465
 10
19.1595319347842
 20
27.37951687553465
 42
0.9999999999999998
 10
19.1595319347842
 20
27.41051687553464
 10
19.1440319347842
 20
27.41051687553464
 10
19.1440319347842
 20
27.66051687553464
 10
19.1595319347842
 20
27.66051687553465
 42
0.9999999999999998
 10
19.1595319347842
 20
27.69151687553465
 10
19.1590319347842
 20
27.69151687553465
 42
-0.4142135623730951
 10
19.1440319347842
 20
27.70651687553465
 10
19.1440319347842
 20
27.78651687553465
 42
-0.4142135623730951
 10
19.1590319347842
 20
27.80151687553465
 10
19.3740319347842
 20
27.80151687553465
 42
-0.4142135623730951
 10
19.3890319347842
 20
27.78651687553465
 10
19.3890319347842
 20
27.70651687553465
 42
-0.4142135623730951
 10
19.3740319347842
 20
27.69151687553465
 10
19.3735319347842
 20
27.69151687553465
 42
0.9999999999999998
 10
19.3735319347842
 20
27.66051687553466
 10
19.4390319347842
 20
27.66051687553465
 10
19.43903193478421
 20
27.80151687553464
 42
0.41421356237311
 10
19.36903193478421
 20
27.87151687553464
 10
19.1740319347842
 20
27.87151687553464
 42
-0.4142135623730951
 10
19.1540319347842
 20
27.89151687553465
 10
19.1540319347842
 20
28.14051687553465
 42
0.4142135623730855
 10
18.9640319347842
 20
28.33051687553465
 10
18.39411959027632
 20
28.33051687553467
 42
-0.1990202627215611
 10
18.37643458344391
 20
28.33784654635445
 10
18.3166535281409
 20
28.39767725809161
 42
0.1990202627215691
 10
18.24237649944475
 20
28.42846187553467
 10
18.23403193478419
 20
28.42846187553467
 42
-0.4142135623730951
 10
18.15403193478419
 20
28.50846187553467
 10
18.15403193478419
 20
30.66076187553467
 42
-0.4142135623731026
 10
18.2240319347842
 20
30.73076187553467
 10
18.25317764145054
 20
30.73076187553467
 42
-0.4142135623730876
 10
18.32317764145054
 20
30.66076187553467
 10
18.32317764145054
 20
30.65009142098922
 42
-0.081971439864274
 10
18.27026271972191
 20
30.49083670747685
 42
0.2574642289896802
 10
18.27061793062576
 20
30.47273080616471
 10
18.28294085472058
 20
30.45138687553466
 42
0.5825402726417694
 10
18.31556048294212
 20
30.45164025391305
 42
0.1277034272886839
 10
18.38803193478419
 20
30.73076187553468
 10
18.38803193478419
 20
30.82451187553467
 10
18.0640319347842
 20
30.82451187553467
 10
18.0640319347842
 20
28.34549217856498
 10
18.1665319347842
 20
28.30946187553467
 10
18.1665319347842
 20
28.33846187553467
 10
18.2382319347842
 20
28.33846187553467
 42
-0.1989123673796511
 10
18.25590960431386
 20
28.33113954506433
 10
18.3225319347842
 20
28.26446187553467
 10
18.3225319347842
 20
28.22251187553467
 42
-0.3541185725307012
 10
18.30669016860055
 20
28.20294892352
 10
18.2045319347842
 20
28.18051187553467
 10
18.1665319347842
 20
28.18051187553467
 10
18.1665319347842
 20
28.20951187553467
 10
18.1545319347842
 20
28.20951187553467
 42
0.4142135623730951
 10
18.1345319347842
 20
28.18951187553467
 10
18.1345319347842
 20
28.16051187553468
 42
0.4142135623730951
 10
18.1545319347842
 20
28.14051187553467
 10
18.3565269347842
 20
28.14051187553467
 42
0.4142135623730951
 10
18.3945319347842
 20
28.17851687553467
 10
18.3725319347842
 20
28.17851687553467
 10
18.3725319347842
 20
28.21551687553467
 42
-0.4142135623730951
 10
18.3975319347842
 20
28.24051687553467
 10
18.9640319347842
 20
28.24051687553465
 42
-0.4142135623730886
 10
19.0640319347842
 20
28.14051687553465
 10
19.0640319347842
 20
27.67051687553464
 10
19.07403193478419
 20
27.66051687553464
 10
19.0640319347842
 20
27.65051687553464
 10
19.0640319347842
 20
27.42051687553464
 10
19.07403193478419
 20
27.41051687553464
 10
19.0640319347842
 20
27.40051687553464
 10
19.0640319347842
 20
26.56451187553467
 42
-0.414213562373093
 10
19.00403193478419
 20
26.50451187553468
 10
18.34795690879931
 20
26.50451187553468
 42
-0.6681640521692851
 10
18.33381420276091
 20
26.53865344072073
 10
18.3872103173322
 20
26.592053862954
 42
0.1989018846181274
 10
18.3945319347842
 20
26.60973081943657
 10
18.3945319347842
 20
26.66450687553467
 10
18.3725319347842
 20
26.66450687553468
 10
18.3725319347842
 20
26.72650687553467
 10
18.3945319347842
 20
26.72650687553467
 42
0.4142135623730951
 10
18.3565269347842
 20
26.76451187553467
 10
18.1545319347842
 20
26.76451187553467
 42
0.4142135623730951
 10
18.1345319347842
 20
26.74451187553467
 10
18.1345319347842
 20
26.71551187553467
 42
0.4142135623730951
 10
18.1545319347842
 20
26.69551187553467
  0
LINE
  5
6182
330
17
100
AcDbEntity
  8
R-SWTS-DET3
100
AcDbLine
 10
18.43903193478419
 20
26.95295348806953
 30
0.0
 11
16.06403193478419
 21
26.95295348806953
 31
0.0
  0
LINE
  5
6183
330
17
100
AcDbEntity
  8
R-SWTS-DET3
100
AcDbLine
 10
18.43903193478419
 20
27.20295348806953
 30
0.0
 11
16.06403193478419
 21
27.20295348806953
 31
0.0
  0
LINE
  5
6184
330
17
100
AcDbEntity
  8
R-SWTS-DET3
100
AcDbLine
 10
18.43903193478419
 20
27.70295348806953
 30
0.0
 11
16.06403193478419
 21
27.70295348806953
 31
0.0
  0
LINE
  5
6185
330
17
100
AcDbEntity
  8
R-SWTS-DET3
100
AcDbLine
 10
18.43903193478419
 20
27.95295348806952
 30
0.0
 11
16.06403193478419
 21
27.95295348806952
 31
0.0
  0
LINE
  5
6186
330
17
100
AcDbEntity
  8
R-SWTS-DET2
100
AcDbLine
 10
18.06403193478418
 20
26.43564977361469
 30
0.0
 11
16.06403193478418
 21
26.43564977361469
 31
0.0
  0
LINE
  5
6187
330
17
100
AcDbEntity
  8
R-SWTS-DET2
100
AcDbLine
 10
18.06403193478418
 20
28.47025720252437
 30
0.0
 11
16.06403193478418
 21
28.47025720252437
 31
0.0
  0
LINE
  5
6188
330
17
100
AcDbEntity
  8
R-SWTS-DET3
100
AcDbLine
 10
18.43903193478419
 20
26.95295348806953
 30
0.0
 11
18.43903193478419
 21
27.95295348806952
 31
0.0
  0
LINE
  5
6189
330
17
100
AcDbEntity
  8
R-SWTS-DET3
100
AcDbLine
 10
18.18903193478419
 20
27.20295348806953
 30
0.0
 11
18.18903193478419
 21
27.70295348806953
 31
0.0
  0
LINE
  5
618A
330
17
100
AcDbEntity
  8
R-SWTS-DET3
100
AcDbLine
 10
19.6890319347842
 20
30.37607026299982
 30
0.0
 11
22.0640319347842
 21
30.37607026299982
 31
0.0
  0
LINE
  5
618B
330
17
100
AcDbEntity
  8
R-SWTS-DET3
100
AcDbLine
 10
19.6890319347842
 20
30.12607026299982
 30
0.0
 11
22.0640319347842
 21
30.12607026299982
 31
0.0
  0
LINE
  5
618C
330
17
100
AcDbEntity
  8
R-SWTS-DET3
100
AcDbLine
 10
19.6890319347842
 20
29.62607026299982
 30
0.0
 11
22.0640319347842
 21
29.62607026299982
 31
0.0
  0
LINE
  5
618D
330
17
100
AcDbEntity
  8
R-SWTS-DET3
100
AcDbLine
 10
19.6890319347842
 20
29.37607026299982
 30
0.0
 11
22.0640319347842
 21
29.37607026299982
 31
0.0
  0
LINE
  5
618E
330
17
100
AcDbEntity
  8
R-SWTS-DET2
100
AcDbLine
 10
20.06403193478421
 20
30.89337397745466
 30
0.0
 11
22.06403193478421
 21
30.89337397745466
 31
0.0
  0
LINE
  5
618F
330
17
100
AcDbEntity
  8
R-SWTS-DET2
100
AcDbLine
 10
20.06403193478421
 20
28.85876654854498
 30
0.0
 11
22.06403193478421
 21
28.85876654854498
 31
0.0
  0
LINE
  5
6190
330
17
100
AcDbEntity
  8
R-SWTS-DET3
100
AcDbLine
 10
19.6890319347842
 20
30.37607026299982
 30
0.0
 11
19.6890319347842
 21
29.37607026299982
 31
0.0
  0
LINE
  5
6191
330
17
100
AcDbEntity
  8
R-SWTS-DET3
100
AcDbLine
 10
19.9390319347842
 20
30.12607026299982
 30
0.0
 11
19.9390319347842
 21
29.62607026299982
 31
0.0
  0
LWPOLYLINE
  5
6192
330
17
100
AcDbEntity
  8
R-SWTS-DET2
100
AcDbPolyline
 90
       31
 70
     1
 43
0.0
 10
19.95002990661975
 20
30.74955885885361
 10
19.95490420721772
 20
30.72274233231468
 10
20.06213880489947
 20
30.75687245643582
 10
20.06701310377816
 20
30.81781910709588
 10
20.06403193478421
 20
30.89337397745466
 10
20.09504147740544
 20
30.88328343589635
 42
-0.1257100272134179
 10
20.1467838049991
 20
30.65129203387428
 42
0.2260837189018228
 10
20.1965016636432
 20
30.49770647344268
 10
20.30744228180355
 20
30.40215116378299
 42
-0.6449762263124317
 10
20.29570093932989
 20
30.37621687176481
 10
20.16646400370051
 20
30.37779660879286
 42
-0.1518691569180708
 10
20.12202884935125
 20
30.39414938538919
 10
20.06210307008277
 20
30.43265257368445
 42
0.0293454671788447
 10
20.01022042689015
 20
30.45004746288734
 10
19.8884264170531
 20
30.46727775247087
 42
0.6538117075652882
 10
19.88143968008774
 20
30.44703694156801
 10
20.04668859757766
 20
30.40294519434568
 42
-0.8886355728344963
 10
20.04462716667827
 20
30.37779660879286
 10
19.91038154628562
 20
30.37779660879286
 42
-0.0642046489364144
 10
19.72176528957833
 20
30.42022907070228
 42
-0.6896355001773956
 10
19.72176528957833
 20
30.52283780109039
 42
-0.0703560868358924
 10
19.91038154628562
 20
30.56407026299982
 10
20.00608435661925
 20
30.56407026299982
 10
20.00608435661925
 20
30.63741702097641
 10
19.95246705691874
 20
30.65935781579387
 10
19.94759275804005
 20
30.6203519578804
 10
19.91103550871313
 20
30.65448208407242
 10
19.88910115946084
 20
30.62278982374113
 10
19.83548386147961
 20
30.68373647647208
 10
19.90128690923648
 20
30.73980739541069
 10
19.91103550871313
 20
30.71542873473248
  0
LWPOLYLINE
  5
6193
330
17
100
AcDbEntity
  8
R-SWTS-DET2
100
AcDbPolyline
 90
       31
 70
     1
 43
0.0
 10
19.95002990661975
 20
29.00258166714603
 10
19.95490420721772
 20
29.02939819368496
 10
20.06213880489947
 20
28.99526806956383
 10
20.06701310377816
 20
28.93432141890376
 10
20.06403193478421
 20
28.85876654854498
 10
20.09504147740544
 20
28.86885709010329
 42
0.1257100272134179
 10
20.1467838049991
 20
29.10084849212535
 42
-0.2260837189018228
 10
20.1965016636432
 20
29.25443405255695
 10
20.30744228180355
 20
29.34998936221665
 42
0.6449762263124317
 10
20.29570093932989
 20
29.37592365423483
 10
20.16646400370051
 20
29.37434391720678
 42
0.1518691569180708
 10
20.12202884935125
 20
29.35799114061044
 10
20.06210307008277
 20
29.3194879523152
 42
-0.0293454671788447
 10
20.01022042689015
 20
29.3020930631123
 10
19.8884264170531
 20
29.28486277352877
 42
-0.6538117075652882
 10
19.88143968008774
 20
29.30510358443163
 10
20.04668859757766
 20
29.34919533165396
 42
0.8886355728344963
 10
20.04462716667827
 20
29.37434391720678
 10
19.91038154628562
 20
29.37434391720678
 42
0.0642046489364144
 10
19.72176528957833
 20
29.33191145529735
 42
0.6896355001773956
 10
19.72176528957833
 20
29.22930272490925
 42
0.0703560868358924
 10
19.91038154628562
 20
29.18807026299982
 10
20.00608435661925
 20
29.18807026299982
 10
20.00608435661925
 20
29.11472350502323
 10
19.95246705691873
 20
29.09278271020576
 10
19.94759275804005
 20
29.13178856811923
 10
19.91103550871313
 20
29.09765844192722
 10
19.88910115946084
 20
29.12935070225851
 10
19.83548386147961
 20
29.06840404952756
 10
19.90128690923648
 20
29.01233313058895
 10
19.91103550871313
 20
29.03671179126716
  0
LWPOLYLINE
  5
6194
330
17
100
AcDbEntity
  8
R-SWTS-DET2
100
AcDbPolyline
 90
       31
 70
     1
 43
0.0
 10
18.17803396294864
 20
26.57946489221573
 10
18.17315966235067
 20
26.60628141875467
 10
18.06592506466892
 20
26.57215129463353
 10
18.06105076579023
 20
26.51120464397346
 10
18.06403193478418
 20
26.43564977361468
 10
18.03302239216295
 20
26.445740315173
 42
-0.1257100272134179
 10
17.9812800645693
 20
26.67773171719506
 42
0.2260837189018228
 10
17.9315622059252
 20
26.83131727762666
 10
17.82062158776484
 20
26.92687258728636
 42
-0.6449762263124317
 10
17.8323629302385
 20
26.95280687930454
 10
17.96159986586788
 20
26.95122714227649
 42
-0.1518691569180708
 10
18.00603502021715
 20
26.93487436568016
 10
18.06596079948562
 20
26.8963711773849
 42
0.0293454671788447
 10
18.11784344267824
 20
26.87897628818201
 10
18.23963745251529
 20
26.86174599859848
 42
0.6538117075652882
 10
18.24662418948065
 20
26.88198680950134
 10
18.08137527199072
 20
26.92607855672367
 42
-0.8886355728344963
 10
18.08343670289012
 20
26.95122714227649
 10
18.21768232328278
 20
26.95122714227649
 42
-0.0642046489364144
 10
18.40629857999006
 20
26.90879468036706
 42
-0.6896355001773956
 10
18.40629857999006
 20
26.80618594997895
 42
-0.0703560868358924
 10
18.21768232328278
 20
26.76495348806953
 10
18.12197951294914
 20
26.76495348806953
 10
18.12197951294914
 20
26.69160673009294
 10
18.17559681264965
 20
26.66966593527547
 10
18.18047111152834
 20
26.70867179318895
 10
18.21702836085525
 20
26.67454166699693
 10
18.23896271010754
 20
26.70623392732821
 10
18.29258000808878
 20
26.64528727459727
 10
18.22677696033191
 20
26.58921635565866
 10
18.21702836085525
 20
26.61359501633687
  0
LWPOLYLINE
  5
6195
330
17
100
AcDbEntity
  8
R-SWTS-DET2
100
AcDbPolyline
 90
       31
 70
     1
 43
0.0
 10
18.17803396294864
 20
28.32644208392332
 10
18.17315966235067
 20
28.29962555738439
 10
18.06592506466892
 20
28.33375568150552
 10
18.06105076579023
 20
28.39470233216559
 10
18.06403193478418
 20
28.47025720252437
 10
18.03302239216295
 20
28.46016666096605
 42
0.1257100272134179
 10
17.9812800645693
 20
28.22817525894399
 42
-0.2260837189018228
 10
17.9315622059252
 20
28.07458969851239
 10
17.82062158776484
 20
27.9790343888527
 42
0.6449762263124317
 10
17.8323629302385
 20
27.95310009683451
 10
17.96159986586789
 20
27.95467983386256
 42
0.1518691569180708
 10
18.00603502021715
 20
27.9710326104589
 10
18.06596079948562
 20
28.00953579875415
 42
-0.0293454671788447
 10
18.11784344267824
 20
28.02693068795705
 10
18.23963745251529
 20
28.04416097754057
 42
-0.6538117075652882
 10
18.24662418948065
 20
28.02392016663772
 10
18.08137527199073
 20
27.97982841941538
 42
0.8886355728344963
 10
18.08343670289012
 20
27.95467983386256
 10
18.21768232328278
 20
27.95467983386256
 42
0.0642046489364144
 10
18.40629857999006
 20
27.99711229577199
 42
0.6896355001773956
 10
18.40629857999006
 20
28.0997210261601
 42
0.0703560868358924
 10
18.21768232328278
 20
28.14095348806953
 10
18.12197951294914
 20
28.14095348806953
 10
18.12197951294914
 20
28.21430024604612
 10
18.17559681264965
 20
28.23624104086358
 10
18.18047111152834
 20
28.19723518295011
 10
18.21702836085525
 20
28.23136530914212
 10
18.23896271010754
 20
28.19967304881084
 10
18.29258000808878
 20
28.26061970154178
 10
18.22677696033191
 20
28.31669062048039
 10
18.21702836085525
 20
28.29231195980219
  0
LINE
  5
6196
330
17
100
AcDbEntity
  8
R-ANNO-DIMS
100
AcDbLine
 10
18.0640319347842
 20
26.03951187553467
 30
0.0
 11
18.0640319347842
 21
24.52251187553467
 31
0.0
  0
LINE
  5
6197
330
17
100
AcDbEntity
  8
R-ANNO-DIMS
100
AcDbLine
 10
17.8140319347842
 20
24.70251187553467
 30
0.0
 11
16.31402193478419
 21
24.70251187553467
 31
0.0
  0
SOLID
  5
6198
330
17
100
AcDbEntity
  8
R-ANNO-DIMS
100
AcDbTrace
 10
17.8140319347842
 20
24.74417854220134
 30
0.0
 11
17.8140319347842
 21
24.66084520886801
 31
0.0
 12
18.0640319347842
 22
24.70251187553467
 32
0.0
 13
18.0640319347842
 23
24.70251187553467
 33
0.0
  0
SOLID
  5
6199
330
17
100
AcDbEntity
  8
R-ANNO-DIMS
100
AcDbTrace
 10
16.31402193478419
 20
24.74417854220134
 30
0.0
 11
16.31402193478419
 21
24.66084520886801
 31
0.0
 12
16.06402193478419
 22
24.70251187553467
 32
0.0
 13
16.06402193478419
 23
24.70251187553467
 33
0.0
  0
MTEXT
  5
619A
330
17
100
AcDbEntity
  8
R-ANNO-DIMS
100
AcDbMText
 10
17.06402693478419
 20
24.92751187553467
 30
0.0
 40
0.25
 41
0.0
 71
     5
 72
     1
  1
\A1;DLO
 73
     1
 44
1.0
1001
ACAD
1000
MTEXTBEGIN
1070
    73
1070
     1
1070
    44
1040
1.0
1070
    74
1070
     0
1000
MTEXTEND
  0
LINE
  5
619B
330
17
100
AcDbEntity
  8
R-ANNO-DIMS
100
AcDbLine
 10
20.0640319347842
 20
26.03951187553467
 30
0.0
 11
20.0640319347842
 21
24.52251187553467
 31
0.0
  0
LINE
  5
619C
330
17
100
AcDbEntity
  8
R-ANNO-DIMS
100
AcDbLine
 10
20.3140319347842
 20
24.70251187553467
 30
0.0
 11
21.8140419347842
 21
24.70251187553467
 31
0.0
  0
SOLID
  5
619D
330
17
100
AcDbEntity
  8
R-ANNO-DIMS
100
AcDbTrace
 10
20.3140319347842
 20
24.74417854220134
 30
0.0
 11
20.3140319347842
 21
24.66084520886801
 31
0.0
 12
20.0640319347842
 22
24.70251187553467
 32
0.0
 13
20.0640319347842
 23
24.70251187553467
 33
0.0
  0
SOLID
  5
619E
330
17
100
AcDbEntity
  8
R-ANNO-DIMS
100
AcDbTrace
 10
21.8140419347842
 20
24.74417854220134
 30
0.0
 11
21.8140419347842
 21
24.66084520886801
 31
0.0
 12
22.0640419347842
 22
24.70251187553467
 32
0.0
 13
22.0640419347842
 23
24.70251187553467
 33
0.0
  0
MTEXT
  5
619F
330
17
100
AcDbEntity
  8
R-ANNO-DIMS
100
AcDbMText
 10
21.0640369347842
 20
24.92751187553467
 30
0.0
 40
0.25
 41
0.0
 71
     5
 72
     1
  1
\A1;DLO
 73
     1
 44
1.0
1001
ACAD
1000
MTEXTBEGIN
1070
    73
1070
     1
1070
    44
1040
1.0
1070
    74
1070
     0
1000
MTEXTEND
  0
LINE
  5
61A0
330
17
100
AcDbEntity
  8
R-ANNO-DIMS
100
AcDbLine
 10
18.0640319347842
 20
26.03951187553467
 30
0.0
 11
18.0640319347842
 21
24.52251187553467
 31
0.0
  0
LINE
  5
61A1
330
17
100
AcDbEntity
  8
R-ANNO-DIMS
100
AcDbLine
 10
20.0640319347842
 20
26.03951187553467
 30
0.0
 11
20.0640319347842
 21
24.52251187553467
 31
0.0
  0
LINE
  5
61A2
330
17
100
AcDbEntity
  8
R-ANNO-DIMS
100
AcDbLine
 10
18.3140319347842
 20
24.70251187553467
 30
0.0
 11
19.8140319347842
 21
24.70251187553467
 31
0.0
  0
SOLID
  5
61A3
330
17
100
AcDbEntity
  8
R-ANNO-DIMS
100
AcDbTrace
 10
18.3140319347842
 20
24.74417854220134
 30
0.0
 11
18.3140319347842
 21
24.66084520886801
 31
0.0
 12
18.0640319347842
 22
24.70251187553467
 32
0.0
 13
18.0640319347842
 23
24.70251187553467
 33
0.0
  0
SOLID
  5
61A4
330
17
100
AcDbEntity
  8
R-ANNO-DIMS
100
AcDbTrace
 10
19.8140319347842
 20
24.74417854220134
 30
0.0
 11
19.8140319347842
 21
24.66084520886801
 31
0.0
 12
20.0640319347842
 22
24.70251187553467
 32
0.0
 13
20.0640319347842
 23
24.70251187553467
 33
0.0
  0
MTEXT
  5
61A5
330
17
100
AcDbEntity
  8
R-ANNO-DIMS
100
AcDbMText
 10
19.0640319347842
 20
24.92751187553467
 30
0.0
 40
0.25
 41
0.0
 71
     5
 72
     1
  1
\A1;2"
 73
     1
 44
1.0
1001
ACAD
1000
MTEXTBEGIN
1070
    73
1070
     1
1070
    44
1040
1.0
1070
    74
1070
     0
1000
MTEXTEND
  0
LWPOLYLINE
  5
61A6
330
17
100
AcDbEntity
  8
R-SWTS-DET1
100
AcDbPolyline
 90
        6
 70
     0
 43
0.0
 10
37.50884694601615
 20
31.16622652908276
 10
37.50884694601615
 20
28.76623652908276
 10
37.30886694601614
 20
28.71621652908276
 10
37.70884694601615
 20
28.61623652908276
 10
37.50884694601614
 20
28.56623652908276
 10
37.50884694601614
 20
26.16622652908276
  0
LINE
  5
61A7
330
17
100
AcDbEntity
  8
R-SWTS-DET1
100
AcDbLine
 10
39.50885694601613
 20
30.91451187553467
 30
0.0
 11
37.50884694601613
 21
30.91451187553467
 31
0.0
  0
LWPOLYLINE
  5
61A8
330
17
100
AcDbEntity
  8
R-SWTS-DET1
100
AcDbPolyline
 90
        6
 70
     0
 43
0.0
 10
43.50886694601615
 20
26.16622652908276
 10
43.50886694601615
 20
28.56621652908275
 10
43.70884694601615
 20
28.61623652908276
 10
43.30886694601615
 20
28.71621652908276
 10
43.50886694601615
 20
28.76621652908275
 10
43.50886694601615
 20
31.16622652908276
  0
LINE
  5
61A9
330
17
100
AcDbEntity
  8
R-SWTS-DET1
100
AcDbLine
 10
41.50885694601615
 20
26.42851187553467
 30
0.0
 11
43.50886694601615
 21
26.42851187553467
 31
0.0
  0
LINE
  5
61AA
330
17
100
AcDbEntity
  8
R-SWTS-DET1
100
AcDbLine
 10
41.50319667502664
 20
30.91451187553467
 30
0.0
 11
43.50320667502664
 21
30.91451187553467
 31
0.0
  0
LINE
  5
61AB
330
17
100
AcDbEntity
  8
R-SWTS-DET1
100
AcDbLine
 10
39.50885694601613
 20
26.41451187553467
 30
0.0
 11
37.50884694601614
 21
26.41451187553467
 31
0.0
  0
TEXT
  5
61AC
330
17
100
AcDbEntity
  8
PART_NUMBERS
100
AcDbText
 10
37.68167900290676
 20
31.41682834265299
 30
0.0
 40
0.25
  1
451CG002 POCKET FILLER
100
AcDbText
  0
TEXT
  5
61AD
330
17
100
AcDbEntity
  8
PART_NUMBERS
100
AcDbText
 10
37.68167900290676
 20
31.91682834265299
 30
0.0
 40
0.25
  1
451VG001 MULLION
100
AcDbText
  0
LWPOLYLINE
  5
61AE
330
17
100
AcDbEntity
  8
R-SWTS-DET1
100
AcDbPolyline
 90
      148
 70
     1
 43
0.0
 10
40.58885694601614
 20
27.76168263311045
 10
40.58885694601614
 20
27.68516538660287
 42
0.3242050878081617
 10
40.59918481486859
 20
27.67091157340984
 42
-0.8529632016673883
 10
40.59435694601615
 20
27.64068263311044
 10
40.58885694601614
 20
27.64068263311044
 10
40.58885694601614
 20
27.39068263311044
 10
40.59435694601615
 20
27.39068263311043
 42
-0.8529632016668454
 10
40.59918481486859
 20
27.36045369281109
 42
0.3242050878078117
 10
40.58885694601614
 20
27.34619987961812
 10
40.58885694601614
 20
27.26968263311043
 42
0.4142135623731015
 10
40.60885694601614
 20
27.24968263311044
 10
40.81385694601613
 20
27.24968263311044
 42
0.4142135623730951
 10
40.83385694601614
 20
27.26968263311043
 10
40.83385694601614
 20
27.34468263311043
 42
0.4142135623730951
 10
40.81885694601614
 20
27.35968263311043
 10
40.81835694601614
 20
27.35968263311043
 42
-0.9999999999999998
 10
40.81835694601614
 20
27.39068263311042
 10
40.88385694601614
 20
27.39068263311043
 10
40.88385694601615
 20
27.24968263311044
 42
-0.4142135623731173
 10
40.81385694601614
 20
27.17968263311043
 10
40.60885694601614
 20
27.17968263311043
 42
0.414213562373108
 10
40.58885694601613
 20
27.15968263311043
 10
40.58885694601613
 20
26.56451187553467
 42
0.4142135623730906
 10
40.64885694601612
 20
26.50451187553467
 10
41.36885694601613
 20
26.50451187553467
 42
0.4142135623730897
 10
41.42885694601614
 20
26.56451187553467
 10
41.42885694601614
 20
26.78851096317125
 10
41.41085694601613
 20
26.78851096317125
 42
-0.4142135623730951
 10
41.34885694601614
 20
26.85051096317125
 10
41.34885694601613
 20
27.03851096317124
 10
41.36685694601614
 20
27.03851096317124
 42
-0.4142135623730951
 10
41.42885694601613
 20
26.97651096317124
 10
41.42885694601613
 20
26.86851096317124
 10
41.50885694601614
 20
26.86851096317124
 10
41.50885694601614
 20
26.41451187553467
 10
39.50885694601613
 20
26.41451187553467
 10
39.50885694601613
 20
26.55953157250437
 10
39.61135694601613
 20
26.59556187553468
 10
39.61135694601613
 20
26.56656187553468
 10
39.6851292268237
 20
26.56656187553468
 42
0.1990202627215749
 10
39.69927723228963
 20
26.5724256121905
 10
39.76735694601614
 20
26.64056187553468
 10
39.76735694601614
 20
26.68251140792098
 42
0.3522182948120313
 10
39.75164729374603
 20
26.70204581132515
 10
39.64935694601614
 20
26.72451187553468
 10
39.61135694601613
 20
26.72451187553468
 10
39.61135694601613
 20
26.69551187553468
 10
39.59935694601613
 20
26.69551187553468
 42
-0.4142135623730951
 10
39.57935694601614
 20
26.71551187553468
 10
39.57935694601614
 20
26.74451187553468
 42
-0.4142135623730951
 10
39.59935694601613
 20
26.76451187553468
 10
39.80135194601614
 20
26.76451187553468
 42
-0.4142135623730882
 10
39.83935694601614
 20
26.72650687553468
 10
39.81735694601614
 20
26.72650687553468
 10
39.81735694601614
 20
26.66450687553468
 10
39.83935694601614
 20
26.66450687553468
 10
39.83935694601614
 20
26.60765986976285
 42
-0.198901884618123
 10
39.83349965205454
 20
26.5935183045768
 10
39.77863921399283
 20
26.53865344072072
 42
0.6681640521692715
 10
39.79278192003123
 20
26.50451187553467
 10
40.44885694601613
 20
26.50451187553467
 42
0.4142135623730928
 10
40.50885694601613
 20
26.56451187553467
 10
40.50885694601613
 20
27.38068263311044
 10
40.51885694601614
 20
27.39068263311044
 10
40.50885694601613
 20
27.40068263311044
 10
40.50885694601613
 20
27.63068263311044
 10
40.51885694601614
 20
27.64068263311044
 10
40.50885694601613
 20
27.65068263311044
 10
40.50885694601614
 20
28.14051687553467
 42
0.4142135623730977
 10
40.40885694601614
 20
28.24051687553467
 10
39.84235694601614
 20
28.24051687553467
 42
0.4142135623730951
 10
39.81735694601614
 20
28.21551687553467
 10
39.81735694601614
 20
28.17851687553467
 10
39.83935694601614
 20
28.17851687553467
 42
-0.4142135623730951
 10
39.80135194601614
 20
28.14051187553467
 10
39.59935694601614
 20
28.14051187553467
 42
-0.4142135623730951
 10
39.57935694601614
 20
28.16051187553467
 10
39.57935694601614
 20
28.18951187553467
 42
-0.4142135623730951
 10
39.59935694601614
 20
28.20951187553467
 10
39.61135694601614
 20
28.20951187553467
 10
39.61135694601614
 20
28.18051187553467
 10
39.64935694601614
 20
28.18051187553467
 10
39.75151517983249
 20
28.20294892351999
 42
0.3541185725306697
 10
39.76735694601614
 20
28.22251187553467
 10
39.76735694601614
 20
28.26446187553467
 10
39.7007346155458
 20
28.33113954506433
 42
0.198912367379654
 10
39.68305694601614
 20
28.33846187553467
 10
39.61135694601614
 20
28.33846187553467
 10
39.61135694601614
 20
28.30946187553467
 10
39.50885694601613
 20
28.34549217856497
 10
39.50885694601613
 20
30.91451187553467
 10
41.50885694601614
 20
30.91451187553467
 10
41.50885694601614
 20
30.46051096317124
 10
41.42885694601614
 20
30.46051096317124
 10
41.42885694601613
 20
30.35251096317124
 42
-0.4142135623730951
 10
41.36685694601614
 20
30.29051096317123
 10
41.34885694601614
 20
30.29051096317124
 10
41.34885694601613
 20
30.47851096317124
 42
-0.4142135623730951
 10
41.41085694601613
 20
30.54051096317124
 10
41.42885694601614
 20
30.54051096317124
 10
41.42885694601614
 20
30.76451187553467
 42
0.414213562373094
 10
41.36885694601613
 20
30.82451187553467
 10
39.64885694601613
 20
30.82451187553467
 42
0.4142135623730951
 10
39.58885694601613
 20
30.76451187553467
 10
39.58885694601614
 20
30.04674171299546
 42
0.5680984128595057
 10
39.61837045952966
 20
30.02914929813484
 42
-0.3397540095737747
 10
39.81685694601614
 20
29.99725939206376
 10
39.81685694601615
 20
29.95329390783744
 10
39.78737628096732
 20
29.93627323793561
 42
-0.3865446749097419
 10
39.77423158240052
 20
29.93913143326499
 42
3.127286275187389
 10
39.77423158240054
 20
29.82889231780437
 42
-0.3865446749096575
 10
39.78737628096732
 20
29.83175051313376
 10
39.81685694601615
 20
29.81472984323193
 10
39.81685694601614
 20
29.77076435900562
 42
-0.3397540095737754
 10
39.61837045952967
 20
29.73887445293456
 42
0.5680984128594928
 10
39.58885694601614
 20
29.72128203807392
 10
39.58885694601614
 20
29.11574171299545
 42
0.5680984128595057
 10
39.61837045952966
 20
29.09814929813483
 42
-0.3397540095737747
 10
39.81685694601614
 20
29.06625939206376
 10
39.81685694601615
 20
29.02229390783745
 10
39.78737628096732
 20
29.00527323793561
 42
-0.3865446749097419
 10
39.77423158240052
 20
29.00813143326499
 42
3.127286275187389
 10
39.77423158240054
 20
28.89789231780437
 42
-0.3865446749096575
 10
39.78737628096732
 20
28.90075051313376
 10
39.81685694601615
 20
28.88372984323194
 10
39.81685694601614
 20
28.83976435900562
 42
-0.3397540095737754
 10
39.61837045952967
 20
28.80787445293456
 42
0.5680984128594928
 10
39.58885694601614
 20
28.79028203807392
 10
39.58885694601614
 20
28.48846187553467
 42
0.4142135623730951
 10
39.65885694601614
 20
28.41846187553467
 10
39.68891237526472
 20
28.41846187553467
 42
-0.1990202627215673
 10
39.76318940396087
 20
28.38767725809161
 10
39.82443517677737
 20
28.32638061219049
 42
0.1990202627215632
 10
39.8385831822433
 20
28.32051687553467
 10
40.41885694601614
 20
28.32051687553466
 42
-0.4142135623730935
 10
40.58885694601614
 20
28.15051687553467
 10
40.58885694601614
 20
27.87168263311044
 42
0.4142135623731081
 10
40.60885694601615
 20
27.85168263311045
 10
40.81385694601615
 20
27.85168263311045
 42
-0.4142135623731173
 10
40.88385694601615
 20
27.78168263311044
 10
40.88385694601614
 20
27.64068263311045
 10
40.81835694601614
 20
27.64068263311045
 42
-0.9999999999999998
 10
40.81835694601614
 20
27.67168263311044
 10
40.81885694601614
 20
27.67168263311044
 42
0.4142135623730951
 10
40.83385694601614
 20
27.68668263311044
 10
40.83385694601614
 20
27.76168263311044
 42
0.4142135623731015
 10
40.81385694601613
 20
27.78168263311044
 10
40.60885694601615
 20
27.78168263311044
 42
0.4142135623730951
  0
LWPOLYLINE
  5
61AF
330
17
100
AcDbEntity
  8
R-SWTS-DET1
100
AcDbPolyline
 90
       98
 70
     1
 43
0.0
 10
41.40635694601612
 20
27.93754904953849
 10
41.36835694601612
 20
27.93754904953849
 10
41.26619871219976
 20
27.91511200155317
 42
0.3541185725306792
 10
41.25035694601612
 20
27.89554904953849
 10
41.25035694601612
 20
27.85359904953849
 10
41.31697927648645
 20
27.78692138000883
 42
0.1989123673796537
 10
41.33465694601611
 20
27.77959904953849
 10
41.40635694601612
 20
27.77959904953849
 10
41.40635694601612
 20
27.80859904953849
 10
41.50885694601612
 20
27.77256874650819
 10
41.50885694601612
 20
26.87009904953849
 10
41.42885694601612
 20
26.87009904953849
 10
41.42885694601612
 20
27.04009904953849
 10
41.34285694601611
 20
27.04009904953848
 10
41.34285694601611
 20
26.97809904953849
 10
41.12585694601611
 20
27.05709904953849
 42
-1.003724381894516
 10
41.14985694601612
 20
27.12259904953849
 10
41.26235530207241
 20
27.08159964866464
 42
0.5183857430387767
 10
41.28920304144517
 20
27.10024484253549
 42
-0.4120800626174649
 10
41.30920251004815
 20
27.12009904953849
 10
41.41885694601612
 20
27.12009904953849
 42
0.4378145317003978
 10
41.42885694601612
 20
27.13009904953849
 10
41.42885694601612
 20
27.25409904953849
 42
0.2907175366164647
 10
41.41885694601612
 20
27.27409904953848
 10
41.41885694601612
 20
27.43609904953848
 10
41.42885694601612
 20
27.44609904953849
 10
41.41885694601612
 20
27.45609904953849
 10
41.41885694601612
 20
27.6107785414628
 42
0.2679491924311257
 10
41.42885694601612
 20
27.62809904953849
 10
41.42885694601612
 20
27.62959904953849
 42
0.4142135623730951
 10
41.35885694601612
 20
27.69959904953849
 10
41.32880151676753
 20
27.69959904953849
 42
-0.1990202627215669
 10
41.2545244880714
 20
27.73038366698155
 10
41.19322376090209
 20
27.79173531288266
 42
0.1990202627215582
 10
41.17907575543616
 20
27.79759904953848
 10
41.09885694601611
 20
27.79759904953849
 42
-0.4142135623730753
 10
40.92885694601611
 20
27.96759904953848
 10
40.92885694601611
 20
29.36259904953849
 42
-0.4142135623730693
 10
41.0988569460161
 20
29.53259904953849
 10
41.17907575543616
 20
29.53259904953849
 42
0.1990202627215434
 10
41.19322376090209
 20
29.53846278619432
 10
41.2545244880714
 20
29.59981443209542
 42
-0.1990202627215654
 10
41.32880151676753
 20
29.63059904953848
 10
41.35885694601612
 20
29.63059904953848
 42
0.4142135623730951
 10
41.42885694601612
 20
29.70059904953848
 10
41.42885694601612
 20
29.70209904953849
 42
0.2679491924311376
 10
41.41885694601612
 20
29.71941955761418
 10
41.41885694601612
 20
29.8740990495385
 10
41.42885694601612
 20
29.88409904953849
 10
41.41885694601612
 20
29.89409904953849
 10
41.41885694601612
 20
30.05609904953849
 42
0.2459617249876099
 10
41.42885694601612
 20
30.07609904953849
 10
41.42885694601612
 20
30.19009904953849
 42
0.4142135623730951
 10
41.40885694601612
 20
30.21009904953849
 10
41.3092025100482
 20
30.21009904953849
 42
-0.4120800626175069
 10
41.28920304144514
 20
30.22995325654149
 42
0.518385743038754
 10
41.26235530207241
 20
30.24859845041233
 10
41.14985694601612
 20
30.20759904953849
 42
-1.003724381894507
 10
41.12585694601611
 20
30.27309904953849
 10
41.34285694601611
 20
30.35209904953849
 10
41.34285694601611
 20
30.29009904953849
 10
41.42885694601612
 20
30.29009904953849
 10
41.42885694601612
 20
30.46009904953848
 10
41.50885694601612
 20
30.46009904953848
 10
41.50885694601612
 20
29.55762935256879
 10
41.40635694601612
 20
29.52159904953849
 10
41.40635694601612
 20
29.55059904953849
 10
41.33465694601611
 20
29.55059904953849
 42
0.1989123673796526
 10
41.31697927648645
 20
29.54327671906815
 10
41.25035694601612
 20
29.47659904953848
 10
41.25035694601612
 20
29.43464904953849
 42
0.3541185725306792
 10
41.26619871219976
 20
29.41508609752381
 10
41.36835694601612
 20
29.39264904953848
 10
41.40635694601612
 20
29.39264904953848
 10
41.40635694601612
 20
29.42164904953849
 10
41.41835694601612
 20
29.42164904953849
 42
-0.4142135623730951
 10
41.43835694601611
 20
29.40164904953848
 10
41.43835694601611
 20
29.37264904953848
 42
-0.4142135623730951
 10
41.41835694601612
 20
29.35264904953849
 10
41.21636194601612
 20
29.35264904953849
 42
-0.4142135623730951
 10
41.17835694601612
 20
29.39065404953849
 10
41.20035694601612
 20
29.39065404953849
 10
41.20035694601612
 20
29.4325990495385
 42
0.4142135623731471
 10
41.18035694601611
 20
29.45259904953849
 10
41.10885694601611
 20
29.45259904953849
 42
0.4142135623730716
 10
41.00885694601611
 20
29.35259904953849
 10
41.00885694601612
 20
27.97759904953848
 42
0.414213562373069
 10
41.10885694601611
 20
27.87759904953849
 10
41.18035694601611
 20
27.87759904953848
 42
0.4142135623731081
 10
41.20035694601612
 20
27.89759904953848
 10
41.20035694601612
 20
27.93954404953849
 10
41.17835694601612
 20
27.93954404953849
 42
-0.4142135623730951
 10
41.21636194601611
 20
27.97754904953849
 10
41.41835694601612
 20
27.97754904953849
 42
-0.4142135623730951
 10
41.43835694601611
 20
27.95754904953849
 10
41.43835694601611
 20
27.92854904953849
 42
-0.4142135623730951
 10
41.41835694601612
 20
27.90854904953849
 10
41.40635694601612
 20
27.9085490495385
  0
LINE
  5
61B0
330
17
100
AcDbEntity
  8
R-SWTS-DET3
100
AcDbLine
 10
39.88385694601613
 20
26.95295348806953
 30
0.0
 11
37.50885694601612
 21
26.95295348806953
 31
0.0
  0
LINE
  5
61B1
330
17
100
AcDbEntity
  8
R-SWTS-DET3
100
AcDbLine
 10
39.88385694601613
 20
27.20295348806953
 30
0.0
 11
37.50885694601612
 21
27.20295348806953
 31
0.0
  0
LINE
  5
61B2
330
17
100
AcDbEntity
  8
R-SWTS-DET3
100
AcDbLine
 10
39.88385694601613
 20
27.70295348806953
 30
0.0
 11
37.50885694601612
 21
27.70295348806953
 31
0.0
  0
LINE
  5
61B3
330
17
100
AcDbEntity
  8
R-SWTS-DET3
100
AcDbLine
 10
39.88385694601613
 20
27.95295348806952
 30
0.0
 11
37.50885694601613
 21
27.95295348806953
 31
0.0
  0
LINE
  5
61B4
330
17
100
AcDbEntity
  8
R-SWTS-DET2
100
AcDbLine
 10
39.50885694601613
 20
26.43564977361469
 30
0.0
 11
37.50885694601612
 21
26.43564977361469
 31
0.0
  0
LINE
  5
61B5
330
17
100
AcDbEntity
  8
R-SWTS-DET2
100
AcDbLine
 10
39.50885694601613
 20
28.47025720252437
 30
0.0
 11
37.50885694601612
 21
28.47025720252437
 31
0.0
  0
LINE
  5
61B6
330
17
100
AcDbEntity
  8
R-SWTS-DET3
100
AcDbLine
 10
39.88385694601613
 20
26.95295348806953
 30
0.0
 11
39.88385694601613
 21
27.95295348806952
 31
0.0
  0
LINE
  5
61B7
330
17
100
AcDbEntity
  8
R-SWTS-DET3
100
AcDbLine
 10
39.63385694601613
 20
27.20295348806953
 30
0.0
 11
39.63385694601613
 21
27.70295348806953
 31
0.0
  0
LINE
  5
61B8
330
17
100
AcDbEntity
  8
R-SWTS-DET3
100
AcDbLine
 10
41.13385694601613
 20
29.16510743700364
 30
0.0
 11
43.50885694601614
 21
29.16510743700364
 31
0.0
  0
LINE
  5
61B9
330
17
100
AcDbEntity
  8
R-SWTS-DET3
100
AcDbLine
 10
41.13385694601613
 20
28.91510743700364
 30
0.0
 11
43.50885694601614
 21
28.91510743700364
 31
0.0
  0
LINE
  5
61BA
330
17
100
AcDbEntity
  8
R-SWTS-DET3
100
AcDbLine
 10
41.13385694601613
 20
28.41510743700363
 30
0.0
 11
43.50885694601614
 21
28.41510743700363
 31
0.0
  0
LINE
  5
61BB
330
17
100
AcDbEntity
  8
R-SWTS-DET3
100
AcDbLine
 10
41.13385694601613
 20
28.16510743700364
 30
0.0
 11
43.50885694601614
 21
28.16510743700364
 31
0.0
  0
LINE
  5
61BC
330
17
100
AcDbEntity
  8
R-SWTS-DET2
100
AcDbLine
 10
41.50885694601615
 20
29.68241115145847
 30
0.0
 11
43.50885694601614
 21
29.68241115145847
 31
0.0
  0
LINE
  5
61BD
330
17
100
AcDbEntity
  8
R-SWTS-DET2
100
AcDbLine
 10
41.50885694601615
 20
27.64780372254879
 30
0.0
 11
43.50885694601614
 21
27.64780372254879
 31
0.0
  0
LINE
  5
61BE
330
17
100
AcDbEntity
  8
R-SWTS-DET3
100
AcDbLine
 10
41.13385694601613
 20
29.16510743700364
 30
0.0
 11
41.13385694601613
 21
28.16510743700364
 31
0.0
  0
LINE
  5
61BF
330
17
100
AcDbEntity
  8
R-SWTS-DET3
100
AcDbLine
 10
41.38385694601613
 20
28.91510743700364
 30
0.0
 11
41.38385694601613
 21
28.41510743700363
 31
0.0
  0
LWPOLYLINE
  5
61C0
330
17
100
AcDbEntity
  8
R-SWTS-DET2
100
AcDbPolyline
 90
       31
 70
     1
 43
0.0
 10
41.39485491785169
 20
29.53859603285743
 10
41.39972921844965
 20
29.51177950631849
 10
41.50696381613141
 20
29.54590963043962
 10
41.5118381150101
 20
29.6068562810997
 10
41.50885694601615
 20
29.68241115145847
 10
41.53986648863738
 20
29.67232060990016
 42
-0.1257100272134179
 10
41.59160881623104
 20
29.4403292078781
 42
0.2260837189018228
 10
41.64132667487513
 20
29.28674364744649
 10
41.75226729303548
 20
29.19118833778681
 42
-0.6449762263124317
 10
41.74052595056182
 20
29.16525404576862
 10
41.61128901493245
 20
29.16683378279667
 42
-0.1518691569180708
 10
41.56685386058318
 20
29.183186559393
 10
41.5069280813147
 20
29.22168974768825
 42
0.0293454671788447
 10
41.45504543812208
 20
29.23908463689115
 10
41.33325142828504
 20
29.25631492647468
 42
0.6538117075652882
 10
41.32626469131968
 20
29.23607411557182
 10
41.4915136088096
 20
29.19198236834949
 42
-0.8886355728344963
 10
41.48945217791021
 20
29.16683378279667
 10
41.35520655751755
 20
29.16683378279667
 42
-0.0642046489364144
 10
41.16659030081026
 20
29.2092662447061
 42
-0.6896355001773956
 10
41.16659030081026
 20
29.31187497509421
 42
-0.0703560868358924
 10
41.35520655751755
 20
29.35310743700363
 10
41.45090936785119
 20
29.35310743700363
 10
41.45090936785119
 20
29.42645419498022
 10
41.39729206815068
 20
29.44839498979769
 10
41.39241776927199
 20
29.40938913188421
 10
41.35586051994507
 20
29.44351925807622
 10
41.33392617069278
 20
29.41182699774495
 10
41.28030887271154
 20
29.4727736504759
 10
41.34611192046842
 20
29.5288445694145
 10
41.35586051994507
 20
29.5044659087363
  0
LWPOLYLINE
  5
61C1
330
17
100
AcDbEntity
  8
R-SWTS-DET2
100
AcDbPolyline
 90
       31
 70
     1
 43
0.0
 10
41.39485491785168
 20
27.79161884114984
 10
41.39972921844965
 20
27.81843536768877
 10
41.50696381613141
 20
27.78430524356764
 10
41.51183811501009
 20
27.72335859290757
 10
41.50885694601615
 20
27.64780372254879
 10
41.53986648863738
 20
27.65789426410711
 42
0.1257100272134179
 10
41.59160881623104
 20
27.88988566612916
 42
-0.2260837189018228
 10
41.64132667487513
 20
28.04347122656077
 10
41.75226729303548
 20
28.13902653622046
 42
0.6449762263124317
 10
41.74052595056182
 20
28.16496082823865
 10
41.61128901493245
 20
28.16338109121059
 42
0.1518691569180708
 10
41.56685386058318
 20
28.14702831461426
 10
41.5069280813147
 20
28.10852512631901
 42
-0.0293454671788447
 10
41.45504543812208
 20
28.09113023711611
 10
41.33325142828504
 20
28.07389994753259
 42
-0.6538117075652882
 10
41.32626469131968
 20
28.09414075843545
 10
41.4915136088096
 20
28.13823250565777
 42
0.8886355728344963
 10
41.48945217791021
 20
28.16338109121059
 10
41.35520655751755
 20
28.16338109121059
 42
0.0642046489364144
 10
41.16659030081026
 20
28.12094862930117
 42
0.6896355001773956
 10
41.16659030081026
 20
28.01833989891306
 42
0.0703560868358924
 10
41.35520655751755
 20
27.97710743700363
 10
41.45090936785119
 20
27.97710743700363
 10
41.45090936785119
 20
27.90376067902704
 10
41.39729206815068
 20
27.88181988420957
 10
41.39241776927199
 20
27.92082574212305
 10
41.35586051994507
 20
27.88669561593104
 10
41.33392617069278
 20
27.91838787626232
 10
41.28030887271154
 20
27.85744122353137
 10
41.34611192046842
 20
27.80137030459277
 10
41.35586051994507
 20
27.82574896527097
  0
LWPOLYLINE
  5
61C2
330
17
100
AcDbEntity
  8
R-SWTS-DET2
100
AcDbPolyline
 90
       31
 70
     1
 43
0.0
 10
39.62285897418058
 20
26.57946489221573
 10
39.61798467358261
 20
26.60628141875467
 10
39.51075007590086
 20
26.57215129463354
 10
39.50587577702217
 20
26.51120464397347
 10
39.50885694601613
 20
26.43564977361469
 10
39.47784740339489
 20
26.44574031517301
 42
-0.1257100272134179
 10
39.42610507580123
 20
26.67773171719506
 42
0.2260837189018228
 10
39.37638721715714
 20
26.83131727762666
 10
39.26544659899678
 20
26.92687258728636
 42
-0.6449762263124317
 10
39.27718794147045
 20
26.95280687930454
 10
39.40642487709983
 20
26.95122714227649
 42
-0.1518691569180708
 10
39.45086003144909
 20
26.93487436568016
 10
39.51078581071757
 20
26.89637117738491
 42
0.0293454671788447
 10
39.56266845391019
 20
26.87897628818201
 10
39.68446246374723
 20
26.86174599859848
 42
0.6538117075652882
 10
39.69144920071259
 20
26.88198680950134
 10
39.52620028322267
 20
26.92607855672367
 42
-0.8886355728344963
 10
39.52826171412205
 20
26.95122714227649
 10
39.66250733451472
 20
26.95122714227649
 42
-0.0642046489364144
 10
39.851123591222
 20
26.90879468036706
 42
-0.6896355001773956
 10
39.851123591222
 20
26.80618594997895
 42
-0.0703560868358924
 10
39.66250733451472
 20
26.76495348806953
 10
39.56680452418108
 20
26.76495348806953
 10
39.56680452418108
 20
26.69160673009294
 10
39.62042182388159
 20
26.66966593527547
 10
39.62529612276028
 20
26.70867179318895
 10
39.66185337208719
 20
26.67454166699693
 10
39.68378772133949
 20
26.70623392732821
 10
39.73740501932073
 20
26.64528727459727
 10
39.67160197156385
 20
26.58921635565866
 10
39.66185337208719
 20
26.61359501633687
  0
LWPOLYLINE
  5
61C3
330
17
100
AcDbEntity
  8
R-SWTS-DET2
100
AcDbPolyline
 90
       31
 70
     1
 43
0.0
 10
39.62285897418058
 20
28.32644208392333
 10
39.61798467358261
 20
28.29962555738439
 10
39.51075007590086
 20
28.33375568150552
 10
39.50587577702218
 20
28.39470233216559
 10
39.50885694601613
 20
28.47025720252437
 10
39.47784740339489
 20
28.46016666096605
 42
0.1257100272134179
 10
39.42610507580123
 20
28.228175258944
 42
-0.2260837189018228
 10
39.37638721715714
 20
28.07458969851239
 10
39.26544659899678
 20
27.9790343888527
 42
0.6449762263124317
 10
39.27718794147045
 20
27.95310009683452
 10
39.40642487709983
 20
27.95467983386257
 42
0.1518691569180708
 10
39.45086003144909
 20
27.9710326104589
 10
39.51078581071757
 20
28.00953579875415
 42
-0.0293454671788447
 10
39.56266845391019
 20
28.02693068795705
 10
39.68446246374723
 20
28.04416097754057
 42
-0.6538117075652882
 10
39.69144920071259
 20
28.02392016663772
 10
39.52620028322267
 20
27.97982841941539
 42
0.8886355728344963
 10
39.52826171412205
 20
27.95467983386257
 10
39.66250733451472
 20
27.95467983386257
 42
0.0642046489364144
 10
39.851123591222
 20
27.99711229577199
 42
0.6896355001773956
 10
39.851123591222
 20
28.0997210261601
 42
0.0703560868358924
 10
39.66250733451472
 20
28.14095348806953
 10
39.56680452418108
 20
28.14095348806953
 10
39.56680452418108
 20
28.21430024604612
 10
39.62042182388159
 20
28.23624104086359
 10
39.62529612276028
 20
28.19723518295011
 10
39.66185337208719
 20
28.23136530914212
 10
39.68378772133949
 20
28.19967304881084
 10
39.73740501932073
 20
28.26061970154179
 10
39.67160197156385
 20
28.31669062048039
 10
39.66185337208719
 20
28.29231195980219
  0
LINE
  5
61C4
330
17
100
AcDbEntity
  8
R-ANNO-DIMS
100
AcDbLine
 10
41.50885694601615
 20
26.06208328756866
 30
0.0
 11
41.50885694601615
 21
24.50708328756866
 31
0.0
  0
LINE
  5
61C5
330
17
100
AcDbEntity
  8
R-ANNO-DIMS
100
AcDbLine
 10
41.75885694601614
 20
24.68708328756866
 30
0.0
 11
43.25886694601614
 21
24.68708328756866
 31
0.0
  0
SOLID
  5
61C6
330
17
100
AcDbEntity
  8
R-ANNO-DIMS
100
AcDbTrace
 10
41.75885694601614
 20
24.72874995423533
 30
0.0
 11
41.75885694601614
 21
24.64541662090199
 31
0.0
 12
41.50885694601615
 22
24.68708328756866
 32
0.0
 13
41.50885694601615
 23
24.68708328756866
 33
0.0
  0
SOLID
  5
61C7
330
17
100
AcDbEntity
  8
R-ANNO-DIMS
100
AcDbTrace
 10
43.25886694601614
 20
24.72874995423533
 30
0.0
 11
43.25886694601614
 21
24.64541662090199
 31
0.0
 12
43.50886694601614
 22
24.68708328756866
 32
0.0
 13
43.50886694601614
 23
24.68708328756866
 33
0.0
  0
MTEXT
  5
61C8
330
17
100
AcDbEntity
  8
R-ANNO-DIMS
100
AcDbMText
 10
42.50886194601615
 20
24.91208328756866
 30
0.0
 40
0.25
 41
0.0
 71
     5
 72
     1
  1
\A1;DLO
 73
     1
 44
1.0
1001
ACAD
1000
MTEXTBEGIN
1070
    73
1070
     1
1070
    44
1040
1.0
1070
    74
1070
     0
1000
MTEXTEND
  0
LINE
  5
61C9
330
17
100
AcDbEntity
  8
R-ANNO-DIMS
100
AcDbLine
 10
39.50885694601613
 20
26.03951187553467
 30
0.0
 11
39.50885694601613
 21
24.50708328756866
 31
0.0
  0
LINE
  5
61CA
330
17
100
AcDbEntity
  8
R-ANNO-DIMS
100
AcDbLine
 10
39.25885694601613
 20
24.68708328756866
 30
0.0
 11
37.75884694601614
 21
24.68708328756866
 31
0.0
  0
SOLID
  5
61CB
330
17
100
AcDbEntity
  8
R-ANNO-DIMS
100
AcDbTrace
 10
39.25885694601613
 20
24.72874995423533
 30
0.0
 11
39.25885694601613
 21
24.64541662090199
 31
0.0
 12
39.50885694601613
 22
24.68708328756866
 32
0.0
 13
39.50885694601613
 23
24.68708328756866
 33
0.0
  0
SOLID
  5
61CC
330
17
100
AcDbEntity
  8
R-ANNO-DIMS
100
AcDbTrace
 10
37.75884694601614
 20
24.72874995423533
 30
0.0
 11
37.75884694601614
 21
24.64541662090199
 31
0.0
 12
37.50884694601614
 22
24.68708328756866
 32
0.0
 13
37.50884694601614
 23
24.68708328756866
 33
0.0
  0
MTEXT
  5
61CD
330
17
100
AcDbEntity
  8
R-ANNO-DIMS
100
AcDbMText
 10
38.50885194601614
 20
24.91208328756866
 30
0.0
 40
0.25
 41
0.0
 71
     5
 72
     1
  1
\A1;DLO
 73
     1
 44
1.0
1001
ACAD
1000
MTEXTBEGIN
1070
    73
1070
     1
1070
    44
1040
1.0
1070
    74
1070
     0
1000
MTEXTEND
  0
LINE
  5
61CE
330
17
100
AcDbEntity
  8
R-ANNO-DIMS
100
AcDbLine
 10
39.50885694601614
 20
26.06208328756866
 30
0.0
 11
39.50885694601614
 21
24.50708328756866
 31
0.0
  0
LINE
  5
61CF
330
17
100
AcDbEntity
  8
R-ANNO-DIMS
100
AcDbLine
 10
41.50885694601615
 20
26.06208328756866
 30
0.0
 11
41.50885694601615
 21
24.50708328756866
 31
0.0
  0
LINE
  5
61D0
330
17
100
AcDbEntity
  8
R-ANNO-DIMS
100
AcDbLine
 10
39.75885694601614
 20
24.68708328756866
 30
0.0
 11
41.25885694601614
 21
24.68708328756866
 31
0.0
  0
SOLID
  5
61D1
330
17
100
AcDbEntity
  8
R-ANNO-DIMS
100
AcDbTrace
 10
39.75885694601614
 20
24.72874995423533
 30
0.0
 11
39.75885694601614
 21
24.64541662090199
 31
0.0
 12
39.50885694601614
 22
24.68708328756866
 32
0.0
 13
39.50885694601614
 23
24.68708328756866
 33
0.0
  0
SOLID
  5
61D2
330
17
100
AcDbEntity
  8
R-ANNO-DIMS
100
AcDbTrace
 10
41.25885694601614
 20
24.72874995423533
 30
0.0
 11
41.25885694601614
 21
24.64541662090199
 31
0.0
 12
41.50885694601615
 22
24.68708328756866
 32
0.0
 13
41.50885694601615
 23
24.68708328756866
 33
0.0
  0
MTEXT
  5
61D3
330
17
100
AcDbEntity
  8
R-ANNO-DIMS
100
AcDbMText
 10
40.50885694601614
 20
24.91208328756866
 30
0.0
 40
0.25
 41
0.0
 71
     5
 72
     1
  1
\A1;2"
 73
     1
 44
1.0
1001
ACAD
1000
MTEXTBEGIN
1070
    73
1070
     1
1070
    44
1040
1.0
1070
    74
1070
     0
1000
MTEXTEND
  0
LWPOLYLINE
  5
61D4
330
17
100
AcDbEntity
  8
R-SWTS-DET1
100
AcDbPolyline
 90
        6
 70
     0
 43
0.0
 10
26.56847754429271
 20
18.08515778521601
 10
26.56847754429271
 20
15.68516778521601
 10
26.3684975442927
 20
15.63514778521601
 10
26.76847754429271
 20
15.53516778521601
 10
26.5684775442927
 20
15.48516778521601
 10
26.5684775442927
 20
13.08515778521601
  0
LINE
  5
61D5
330
17
100
AcDbEntity
  8
R-SWTS-DET1
100
AcDbLine
 10
28.56848754429272
 20
13.34663143942296
 30
0.0
 11
26.56847754429271
 21
13.34663143942296
 31
0.0
  0
LINE
  5
61D6
330
17
100
AcDbEntity
  8
R-SWTS-DET1
100
AcDbLine
 10
28.56848754429271
 20
17.84663143942296
 30
0.0
 11
26.56847754429271
 21
17.84663143942296
 31
0.0
  0
LWPOLYLINE
  5
61D7
330
17
100
AcDbEntity
  8
R-SWTS-DET1
100
AcDbPolyline
 90
        6
 70
     0
 43
0.0
 10
32.56849754429273
 20
13.08515778521601
 10
32.56848754429273
 20
15.46937095811251
 10
32.76846754429274
 20
15.51939095811251
 10
32.36848754429272
 20
15.61937095811251
 10
32.56848754429273
 20
15.66937095811251
 10
32.56849754429273
 20
18.08515778521601
  0
LINE
  5
61D8
330
17
100
AcDbEntity
  8
R-SWTS-DET1
100
AcDbLine
 10
30.56848754429271
 20
13.34663143942296
 30
0.0
 11
32.56849754429273
 21
13.34663143942296
 31
0.0
  0
LINE
  5
61D9
330
17
100
AcDbEntity
  8
R-SWTS-DET1
100
AcDbLine
 10
30.56848754429271
 20
17.84663143942296
 30
0.0
 11
32.56849754429271
 21
17.84663143942296
 31
0.0
  0
TEXT
  5
61DA
330
17
100
AcDbEntity
  8
PART_NUMBERS
100
AcDbText
 10
26.7413096011833
 20
18.33550413966791
 30
0.0
 40
0.25
  1
451CG028 DEEP POCKET FILLER
100
AcDbText
  0
TEXT
  5
61DB
330
17
100
AcDbEntity
  8
PART_NUMBERS
100
AcDbText
 10
26.7413096011833
 20
18.83550413966791
 30
0.0
 40
0.25
  1
451VG052 SHALLOW POCKET MULLION
100
AcDbText
  0
LWPOLYLINE
  5
61DC
330
17
100
AcDbEntity
  8
R-SWTS-DET1
100
AcDbPolyline
 90
       98
 70
     1
 43
0.0
 10
28.81114577810905
 20
16.3466561791041
 42
0.3541185725306761
 10
28.8269875442927
 20
16.36621913111878
 10
28.8269875442927
 20
16.40816913111878
 10
28.76036521382236
 20
16.47484680064844
 42
0.1989123673796582
 10
28.7426875442927
 20
16.48216913111878
 10
28.6709875442927
 20
16.48216913111878
 10
28.6709875442927
 20
16.45316913111878
 10
28.5684875442927
 20
16.48919943414908
 10
28.5684875442927
 20
17.39166913111878
 10
28.6484875442927
 20
17.39166913111878
 10
28.6484875442927
 20
17.22166913111878
 10
28.7344875442927
 20
17.22166913111879
 10
28.7344875442927
 20
17.28366913111878
 10
28.9514875442927
 20
17.20466913111878
 42
-1.003724381894511
 10
28.9274875442927
 20
17.13916913111878
 10
28.81498918823642
 20
17.18016853199262
 42
0.5183857430387555
 10
28.78814144886367
 20
17.16152333812178
 42
-0.4120800626174657
 10
28.76814198026066
 20
17.14166913111878
 10
28.6684875442927
 20
17.14166913111878
 42
0.4142135623730951
 10
28.6484875442927
 20
17.12166913111878
 10
28.6484875442927
 20
16.99766913111879
 42
0.4142135623730951
 10
28.6584875442927
 20
16.98766913111879
 10
28.6584875442927
 20
16.82566913111879
 10
28.6484875442927
 20
16.81566913111879
 10
28.6584875442927
 20
16.80566913111879
 10
28.6584875442927
 20
16.64366913111878
 42
0.4142135623730951
 10
28.6484875442927
 20
16.63366913111878
 10
28.6484875442927
 20
16.63216913111878
 42
0.4142135623730951
 10
28.7184875442927
 20
16.56216913111878
 10
28.74854297354129
 20
16.56216913111878
 42
-0.1990202627215674
 10
28.82282000223743
 20
16.53138451367572
 10
28.88412072940673
 20
16.47003286777461
 42
0.1990202627215459
 10
28.89826873487266
 20
16.46416913111879
 10
29.47848754429271
 20
16.46416913111878
 42
-0.4142135623730888
 10
29.6484875442927
 20
16.29416913111878
 10
29.6484875442927
 20
14.89916913111879
 42
-0.4142135623730889
 10
29.47848754429271
 20
14.72916913111879
 10
28.89826873487266
 20
14.72916913111878
 42
0.1990202627215466
 10
28.88412072940673
 20
14.72330539446296
 10
28.82282000223743
 20
14.66195374856185
 42
-0.1990202627215655
 10
28.74854297354129
 20
14.63116913111879
 10
28.7184875442927
 20
14.63116913111879
 42
0.4142135623730951
 10
28.6484875442927
 20
14.56116913111879
 10
28.6484875442927
 20
14.55966913111878
 42
0.4142135623730951
 10
28.6584875442927
 20
14.54966913111878
 10
28.6584875442927
 20
14.38766913111878
 10
28.6484875442927
 20
14.37766913111878
 10
28.6584875442927
 20
14.36766913111878
 10
28.6584875442927
 20
14.20566913111878
 42
0.4142135623730951
 10
28.6484875442927
 20
14.19566913111878
 10
28.6484875442927
 20
14.07166913111878
 42
0.4142135623730951
 10
28.6684875442927
 20
14.05166913111878
 10
28.76814198026071
 20
14.05166913111878
 42
-0.4120800626174634
 10
28.78814144886367
 20
14.03181492411578
 42
0.5183857430387571
 10
28.81498918823642
 20
14.01316973024493
 10
28.9274875442927
 20
14.05416913111878
 42
-1.003724381894516
 10
28.9514875442927
 20
13.98866913111878
 10
28.7344875442927
 20
13.90966913111878
 10
28.7344875442927
 20
13.97166913111878
 10
28.6484875442927
 20
13.97166913111878
 10
28.6484875442927
 20
13.80166913111878
 10
28.5684875442927
 20
13.80166913111878
 10
28.5684875442927
 20
14.70413882808848
 10
28.6709875442927
 20
14.74016913111878
 10
28.6709875442927
 20
14.71116913111879
 10
28.7426875442927
 20
14.71116913111879
 42
0.1989123673796506
 10
28.76036521382236
 20
14.71849146158912
 10
28.8269875442927
 20
14.78516913111878
 10
28.8269875442927
 20
14.82711913111878
 42
0.3541185725306762
 10
28.81114577810905
 20
14.84668208313346
 10
28.7089875442927
 20
14.86911913111878
 10
28.6709875442927
 20
14.86911913111878
 10
28.6709875442927
 20
14.84011913111879
 10
28.6589875442927
 20
14.84011913111879
 42
-0.4142135623730951
 10
28.6389875442927
 20
14.86011913111878
 10
28.6389875442927
 20
14.88911913111878
 42
-0.4142135623730951
 10
28.6589875442927
 20
14.90911913111878
 10
28.86098254429271
 20
14.90911913111878
 42
-0.4142135623730951
 10
28.8989875442927
 20
14.87111413111878
 10
28.8769875442927
 20
14.87111413111878
 10
28.8769875442927
 20
14.82916913111878
 42
0.4142135623731212
 10
28.8969875442927
 20
14.80916913111878
 10
29.4684875442927
 20
14.80916913111879
 42
0.4142135623730898
 10
29.5684875442927
 20
14.90916913111879
 10
29.5684875442927
 20
16.28416913111878
 42
0.4142135623730898
 10
29.4684875442927
 20
16.38416913111878
 10
28.8969875442927
 20
16.38416913111879
 42
0.4142135623730951
 10
28.8769875442927
 20
16.36416913111879
 10
28.8769875442927
 20
16.32222413111878
 10
28.8989875442927
 20
16.32222413111878
 42
-0.4142135623730951
 10
28.86098254429271
 20
16.28421913111878
 10
28.6589875442927
 20
16.28421913111878
 42
-0.4142135623730951
 10
28.6389875442927
 20
16.30421913111878
 10
28.6389875442927
 20
16.33321913111878
 42
-0.4142135623730951
 10
28.6589875442927
 20
16.35321913111878
 10
28.6709875442927
 20
16.35321913111878
 10
28.6709875442927
 20
16.32421913111878
 10
28.7089875442927
 20
16.32421913111878
  0
LWPOLYLINE
  5
61DD
330
17
100
AcDbEntity
  8
R-SWTS-DET1
100
AcDbPolyline
 90
      133
 70
     1
 43
0.0
 10
30.56848754429271
 20
17.70161174245326
 10
30.4659875442927
 20
17.66558143942296
 10
30.4659875442927
 20
17.69458143942296
 10
30.39428754429271
 20
17.69458143942296
 42
0.1989123673796512
 10
30.37660987476304
 20
17.68725910895262
 10
30.30998754429271
 20
17.62058143942295
 10
30.30998754429271
 20
17.57863143942295
 42
0.3541185725306985
 10
30.32582931047635
 20
17.55906848740828
 10
30.4279875442927
 20
17.53663143942296
 10
30.4659875442927
 20
17.53663143942296
 10
30.4659875442927
 20
17.56563143942296
 10
30.4779875442927
 20
17.56563143942296
 42
-0.4142135623730951
 10
30.49798754429271
 20
17.54563143942296
 10
30.49798754429271
 20
17.51663143942296
 42
-0.4142135623730951
 10
30.4779875442927
 20
17.49663143942296
 10
30.27599254429271
 20
17.49663143942296
 42
-0.4142135623730951
 10
30.23798754429271
 20
17.53463643942295
 10
30.25998754429271
 20
17.53463643942295
 10
30.25998754429271
 20
17.59663643942296
 10
30.23798754429271
 20
17.59663643942296
 10
30.23798754429271
 20
17.65141249552106
 42
-0.1989018846181274
 10
30.2453091617447
 20
17.66908945200363
 10
30.298705276316
 20
17.7224898742369
 42
0.6681640521692886
 10
30.2845625702776
 20
17.75663143942296
 10
30.12848754429272
 20
17.75663143942296
 42
0.4142135623730928
 10
30.06848754429273
 20
17.69663143942296
 10
30.06848754429271
 20
16.88046068184719
 10
30.05848754429271
 20
16.87046068184719
 10
30.06848754429271
 20
16.86046068184719
 10
30.06848754429271
 20
16.63046068184719
 10
30.05848754429271
 20
16.62046068184719
 10
30.06848754429271
 20
16.61046068184719
 10
30.06848754429271
 20
16.12062643942296
 42
0.4142135623730951
 10
30.16848754429271
 20
16.02062643942296
 10
30.2349875442927
 20
16.02062643942296
 42
0.4142135623730951
 10
30.25998754429271
 20
16.04562643942296
 10
30.25998754429271
 20
16.08262643942296
 10
30.2379875442927
 20
16.08262643942296
 42
-0.4142135623730951
 10
30.2759925442927
 20
16.12063143942296
 10
30.4779875442927
 20
16.12063143942296
 42
-0.4142135623730951
 10
30.49798754429271
 20
16.10063143942296
 10
30.49798754429271
 20
16.07163143942296
 42
-0.4142135623730951
 10
30.4779875442927
 20
16.05163143942296
 10
30.4659875442927
 20
16.05163143942296
 10
30.4659875442927
 20
16.08063143942296
 10
30.4279875442927
 20
16.08063143942296
 10
30.32582931047635
 20
16.05819439143763
 42
0.3541185725306792
 10
30.3099875442927
 20
16.03863143942296
 10
30.3099875442927
 20
15.99668143942295
 10
30.37660987476304
 20
15.93000376989329
 42
0.1989123673796507
 10
30.3942875442927
 20
15.92268143942296
 10
30.4659875442927
 20
15.92268143942296
 10
30.4659875442927
 20
15.95168143942295
 10
30.56848754429271
 20
15.91565113639266
 10
30.56848754429271
 20
15.78063143942296
 10
30.56848754429271
 20
13.34663143942296
 10
28.5684875442927
 20
13.34663143942296
 10
28.5684875442927
 20
13.80063235178639
 10
28.6484875442927
 20
13.80063235178639
 10
28.64848754429271
 20
13.90863235178639
 42
-0.4142135623730951
 10
28.7104875442927
 20
13.9706323517864
 10
28.7284875442927
 20
13.97063235178639
 10
28.7284875442927
 20
13.78263235178639
 42
-0.4142135623730951
 10
28.6664875442927
 20
13.72063235178639
 10
28.6484875442927
 20
13.72063235178639
 10
28.6484875442927
 20
13.49663143942296
 42
0.4142135623730929
 10
28.7084875442927
 20
13.43663143942296
 10
30.42848754429271
 20
13.43663143942296
 42
0.4142135623730951
 10
30.48848754429271
 20
13.49663143942296
 10
30.48848754429271
 20
14.19513143942295
 42
0.4142135623730951
 10
30.47848754429271
 20
14.20513143942295
 10
30.47848754429271
 20
14.54913143942294
 42
0.4142135623730951
 10
30.48848754429271
 20
14.55913143942294
 10
30.48848754429271
 20
15.12613143942297
 42
0.4142135623730951
 10
30.47848754429271
 20
15.13613143942297
 10
30.47848754429271
 20
15.48013143942295
 42
0.4142135623730951
 10
30.48848754429271
 20
15.49013143942295
 10
30.48848754429271
 20
15.77268143942295
 42
0.4142135623730951
 10
30.41848754429271
 20
15.84268143942296
 10
30.39843211504412
 20
15.84268143942296
 42
-0.1990202627215682
 10
30.32415508634798
 20
15.87346605686602
 10
30.26290931353147
 20
15.93476270276713
 42
0.1990202627215676
 10
30.24876130806555
 20
15.94062643942296
 10
30.15848754429271
 20
15.94062643942296
 42
-0.4142135623730951
 10
29.98848754429271
 20
16.11062643942296
 10
29.98848754429271
 20
16.38946068184718
 42
0.4142135623731081
 10
29.96848754429271
 20
16.40946068184718
 10
29.7634875442927
 20
16.40946068184718
 42
-0.4142135623731173
 10
29.6934875442927
 20
16.47946068184719
 10
29.69348754429271
 20
16.62046068184718
 10
29.7589875442927
 20
16.62046068184718
 42
-0.9999999999999998
 10
29.7589875442927
 20
16.58946068184718
 10
29.75848754429271
 20
16.58946068184718
 42
0.4142135623730951
 10
29.74348754429271
 20
16.57446068184718
 10
29.74348754429271
 20
16.49446068184718
 42
0.4142135623730976
 10
29.75848754429271
 20
16.47946068184718
 10
29.97348754429271
 20
16.47946068184718
 42
0.4142135623730938
 10
29.9884875442927
 20
16.49446068184718
 10
29.9884875442927
 20
16.57446478048317
 42
0.4190234982698207
 10
29.97324164265336
 20
16.58946276476053
 42
-1.00823086916291
 10
29.9729875442927
 20
16.62046068184718
 10
29.9884875442927
 20
16.62046068184719
 10
29.9884875442927
 20
16.87046068184719
 10
29.9729875442927
 20
16.87046068184719
 42
-0.9999999999999998
 10
29.9729875442927
 20
16.90146068184718
 10
29.97348754429271
 20
16.90146068184718
 42
0.4142135623730951
 10
29.9884875442927
 20
16.91646068184718
 10
29.9884875442927
 20
16.99646068184719
 42
0.4142135623730938
 10
29.97348754429271
 20
17.01146068184719
 10
29.75848754429271
 20
17.01146068184719
 42
0.4142135623730951
 10
29.74348754429271
 20
16.99646068184719
 10
29.74348754429271
 20
16.91645658321121
 42
0.4190234982697588
 10
29.75873344593205
 20
16.90145859893385
 42
-1.008230869162782
 10
29.7589875442927
 20
16.8704606818472
 10
29.69348754429271
 20
16.8704606818472
 10
29.6934875442927
 20
17.01146068184719
 42
-0.4142135623731173
 10
29.7634875442927
 20
17.0814606818472
 10
29.96848754429271
 20
17.0814606818472
 42
0.4142135623730887
 10
29.98848754429271
 20
17.1014606818472
 10
29.98848754429272
 20
17.69663143942296
 42
0.4142135623730951
 10
29.92848754429271
 20
17.75663143942296
 10
28.7084875442927
 20
17.75663143942296
 42
0.4142135623730971
 10
28.6484875442927
 20
17.69663143942296
 10
28.6484875442927
 20
17.47263235178637
 10
28.6664875442927
 20
17.47263235178638
 42
-0.4142135623730951
 10
28.7284875442927
 20
17.41063235178638
 10
28.7284875442927
 20
17.22263235178639
 10
28.7104875442927
 20
17.22263235178639
 42
-0.4142135623730951
 10
28.64848754429271
 20
17.28463235178639
 10
28.64848754429271
 20
17.39263235178639
 10
28.5684875442927
 20
17.39263235178639
 10
28.5684875442927
 20
17.84663143942296
 10
30.56848754429271
 20
17.84663143942296
  0
LINE
  5
61DE
330
17
100
AcDbEntity
  8
R-SWTS-DET3
100
AcDbLine
 10
28.9434875442927
 20
15.09756074365364
 30
0.0
 11
26.56848754429269
 21
15.09756074365364
 31
0.0
  0
LINE
  5
61DF
330
17
100
AcDbEntity
  8
R-SWTS-DET3
100
AcDbLine
 10
28.9434875442927
 20
15.34756074365364
 30
0.0
 11
26.56848754429269
 21
15.34756074365364
 31
0.0
  0
LINE
  5
61E0
330
17
100
AcDbEntity
  8
R-SWTS-DET3
100
AcDbLine
 10
28.9434875442927
 20
15.84756074365364
 30
0.0
 11
26.56848754429269
 21
15.84756074365364
 31
0.0
  0
LINE
  5
61E1
330
17
100
AcDbEntity
  8
R-SWTS-DET3
100
AcDbLine
 10
28.9434875442927
 20
16.09756074365364
 30
0.0
 11
26.5684875442927
 21
16.09756074365364
 31
0.0
  0
LINE
  5
61E2
330
17
100
AcDbEntity
  8
R-SWTS-DET2
100
AcDbLine
 10
28.5684875442927
 20
14.5802570291988
 30
0.0
 11
26.56848754429269
 21
14.5802570291988
 31
0.0
  0
LINE
  5
61E3
330
17
100
AcDbEntity
  8
R-SWTS-DET2
100
AcDbLine
 10
28.5684875442927
 20
16.61486445810849
 30
0.0
 11
26.56848754429269
 21
16.61486445810849
 31
0.0
  0
LINE
  5
61E4
330
17
100
AcDbEntity
  8
R-SWTS-DET3
100
AcDbLine
 10
28.9434875442927
 20
15.09756074365364
 30
0.0
 11
28.9434875442927
 21
16.09756074365364
 31
0.0
  0
LINE
  5
61E5
330
17
100
AcDbEntity
  8
R-SWTS-DET3
100
AcDbLine
 10
28.6934875442927
 20
15.34756074365364
 30
0.0
 11
28.6934875442927
 21
15.84756074365364
 31
0.0
  0
LINE
  5
61E6
330
17
100
AcDbEntity
  8
R-SWTS-DET3
100
AcDbLine
 10
30.19348754429272
 20
17.3081898268881
 30
0.0
 11
32.56848754429272
 21
17.3081898268881
 31
0.0
  0
LINE
  5
61E7
330
17
100
AcDbEntity
  8
R-SWTS-DET3
100
AcDbLine
 10
30.19348754429272
 20
17.0581898268881
 30
0.0
 11
32.56848754429272
 21
17.0581898268881
 31
0.0
  0
LINE
  5
61E8
330
17
100
AcDbEntity
  8
R-SWTS-DET3
100
AcDbLine
 10
30.19348754429272
 20
16.5581898268881
 30
0.0
 11
32.56848754429272
 21
16.5581898268881
 31
0.0
  0
LINE
  5
61E9
330
17
100
AcDbEntity
  8
R-SWTS-DET3
100
AcDbLine
 10
30.19348754429272
 20
16.3081898268881
 30
0.0
 11
32.56848754429272
 21
16.3081898268881
 31
0.0
  0
LINE
  5
61EA
330
17
100
AcDbEntity
  8
R-SWTS-DET2
100
AcDbLine
 10
30.56848754429271
 20
17.82549354134294
 30
0.0
 11
32.56848754429272
 21
17.82549354134294
 31
0.0
  0
LINE
  5
61EB
330
17
100
AcDbEntity
  8
R-SWTS-DET2
100
AcDbLine
 10
30.56848754429271
 20
15.79088611243326
 30
0.0
 11
32.56848754429272
 21
15.79088611243326
 31
0.0
  0
LINE
  5
61EC
330
17
100
AcDbEntity
  8
R-SWTS-DET3
100
AcDbLine
 10
30.19348754429272
 20
17.3081898268881
 30
0.0
 11
30.19348754429272
 21
16.3081898268881
 31
0.0
  0
LINE
  5
61ED
330
17
100
AcDbEntity
  8
R-SWTS-DET3
100
AcDbLine
 10
30.44348754429272
 20
17.0581898268881
 30
0.0
 11
30.44348754429272
 21
16.5581898268881
 31
0.0
  0
LWPOLYLINE
  5
61EE
330
17
100
AcDbEntity
  8
R-SWTS-DET2
100
AcDbPolyline
 90
       31
 70
     1
 43
0.0
 10
30.45448551612827
 20
17.6816784227419
 10
30.45935981672624
 20
17.65486189620296
 10
30.56659441440798
 20
17.68899202032409
 10
30.57146871328667
 20
17.74993867098416
 10
30.56848754429271
 20
17.82549354134294
 10
30.59949708691396
 20
17.81540299978463
 42
-0.1257100272134179
 10
30.65123941450761
 20
17.58341159776257
 42
0.2260837189018228
 10
30.70095727315171
 20
17.42982603733097
 10
30.81189789131206
 20
17.33427072767127
 42
-0.6449762263124317
 10
30.8001565488384
 20
17.30833643565309
 10
30.67091961320902
 20
17.30991617268114
 42
-0.1518691569180708
 10
30.62648445885976
 20
17.32626894927747
 10
30.56655867959128
 20
17.36477213757272
 42
0.0293454671788447
 10
30.51467603639866
 20
17.38216702677562
 10
30.39288202656162
 20
17.39939731635915
 42
0.6538117075652882
 10
30.38589528959625
 20
17.37915650545629
 10
30.55114420708618
 20
17.33506475823396
 42
-0.8886355728344963
 10
30.54908277618679
 20
17.30991617268114
 10
30.41483715579412
 20
17.30991617268114
 42
-0.0642046489364144
 10
30.22622089908685
 20
17.35234863459057
 42
-0.6896355001773956
 10
30.22622089908684
 20
17.45495736497868
 42
-0.0703560868358924
 10
30.41483715579412
 20
17.4961898268881
 10
30.51053996612776
 20
17.4961898268881
 10
30.51053996612776
 20
17.56953658486469
 10
30.45692266642725
 20
17.59147737968216
 10
30.45204836754856
 20
17.55247152176868
 10
30.41549111822165
 20
17.5866016479607
 10
30.39355676896935
 20
17.55490938762942
 10
30.33993947098812
 20
17.61585604036036
 10
30.40574251874499
 20
17.67192695929897
 10
30.41549111822165
 20
17.64754829862076
  0
LWPOLYLINE
  5
61EF
330
17
100
AcDbEntity
  8
R-SWTS-DET2
100
AcDbPolyline
 90
       31
 70
     1
 43
0.0
 10
30.45448551612827
 20
15.93470123103431
 10
30.45935981672624
 20
15.96151775757324
 10
30.56659441440798
 20
15.92738763345211
 10
30.57146871328667
 20
15.86644098279204
 10
30.56848754429271
 20
15.79088611243326
 10
30.59949708691396
 20
15.80097665399158
 42
0.1257100272134179
 10
30.65123941450761
 20
16.03296805601363
 42
-0.2260837189018228
 10
30.70095727315171
 20
16.18655361644524
 10
30.81189789131206
 20
16.28210892610493
 42
0.6449762263124317
 10
30.8001565488384
 20
16.30804321812312
 10
30.67091961320902
 20
16.30646348109506
 42
0.1518691569180708
 10
30.62648445885976
 20
16.29011070449873
 10
30.56655867959128
 20
16.25160751620348
 42
-0.0293454671788447
 10
30.51467603639866
 20
16.23421262700058
 10
30.39288202656162
 20
16.21698233741706
 42
-0.6538117075652882
 10
30.38589528959625
 20
16.23722314831991
 10
30.55114420708618
 20
16.28131489554224
 42
0.8886355728344963
 10
30.54908277618679
 20
16.30646348109506
 10
30.41483715579412
 20
16.30646348109506
 42
0.0642046489364144
 10
30.22622089908684
 20
16.26403101918564
 42
0.6896355001773956
 10
30.22622089908684
 20
16.16142228879753
 42
0.0703560868358924
 10
30.41483715579412
 20
16.1201898268881
 10
30.51053996612776
 20
16.1201898268881
 10
30.51053996612776
 20
16.04684306891152
 10
30.45692266642725
 20
16.02490227409404
 10
30.45204836754856
 20
16.06390813200752
 10
30.41549111822165
 20
16.02977800581551
 10
30.39355676896935
 20
16.06147026614679
 10
30.33993947098812
 20
16.00052361341584
 10
30.40574251874499
 20
15.94445269447724
 10
30.41549111822165
 20
15.96883135515544
  0
LWPOLYLINE
  5
61F0
330
17
100
AcDbEntity
  8
R-SWTS-DET2
100
AcDbPolyline
 90
       31
 70
     1
 43
0.0
 10
28.68248957245715
 20
14.72407214779985
 10
28.67761527185918
 20
14.75088867433878
 10
28.57038067417743
 20
14.71675855021765
 10
28.56550637529874
 20
14.65581189955758
 10
28.5684875442927
 20
14.5802570291988
 10
28.53747800167146
 20
14.59034757075712
 42
-0.1257100272134179
 10
28.4857356740778
 20
14.82233897277918
 42
0.2260837189018228
 10
28.4360178154337
 20
14.97592453321078
 10
28.32507719727335
 20
15.07147984287047
 42
-0.6449762263124317
 10
28.33681853974701
 20
15.09741413488866
 10
28.4660554753764
 20
15.09583439786061
 42
-0.1518691569180708
 10
28.51049062972565
 20
15.07948162126427
 10
28.57041640899413
 20
15.04097843296902
 42
0.0293454671788447
 10
28.62229905218675
 20
15.02358354376612
 10
28.74409306202379
 20
15.0063532541826
 42
0.6538117075652882
 10
28.75107979898916
 20
15.02659406508546
 10
28.58583088149924
 20
15.07068581230778
 42
-0.8886355728344963
 10
28.58789231239862
 20
15.09583439786061
 10
28.72213793279128
 20
15.09583439786061
 42
-0.0642046489364144
 10
28.91075418949857
 20
15.05340193595118
 42
-0.6896355001773956
 10
28.91075418949857
 20
14.95079320556307
 42
-0.0703560868358924
 10
28.72213793279128
 20
14.90956074365364
 10
28.62643512245765
 20
14.90956074365364
 10
28.62643512245765
 20
14.83621398567706
 10
28.68005242215816
 20
14.81427319085959
 10
28.68492672103685
 20
14.85327904877306
 10
28.72148397036376
 20
14.81914892258105
 10
28.74341831961606
 20
14.85084118291233
 10
28.79703561759729
 20
14.78989453018138
 10
28.73123256984042
 20
14.73382361124278
 10
28.72148397036376
 20
14.75820227192098
  0
LWPOLYLINE
  5
61F1
330
17
100
AcDbEntity
  8
R-SWTS-DET2
100
AcDbPolyline
 90
       31
 70
     1
 43
0.0
 10
28.68248957245715
 20
16.47104933950744
 10
28.67761527185918
 20
16.4442328129685
 10
28.57038067417743
 20
16.47836293708964
 10
28.56550637529874
 20
16.5393095877497
 10
28.5684875442927
 20
16.61486445810849
 10
28.53747800167146
 20
16.60477391655017
 42
0.1257100272134179
 10
28.4857356740778
 20
16.37278251452811
 42
-0.2260837189018228
 10
28.4360178154337
 20
16.21919695409651
 10
28.32507719727335
 20
16.12364164443681
 42
0.6449762263124317
 10
28.33681853974701
 20
16.09770735241863
 10
28.4660554753764
 20
16.09928708944668
 42
0.1518691569180708
 10
28.51049062972565
 20
16.11563986604301
 10
28.57041640899413
 20
16.15414305433827
 42
-0.0293454671788447
 10
28.62229905218675
 20
16.17153794354116
 10
28.74409306202379
 20
16.18876823312469
 42
-0.6538117075652882
 10
28.75107979898916
 20
16.16852742222183
 10
28.58583088149924
 20
16.12443567499951
 42
0.8886355728344963
 10
28.58789231239862
 20
16.09928708944669
 10
28.72213793279128
 20
16.09928708944669
 42
0.0642046489364144
 10
28.91075418949857
 20
16.14171955135611
 42
0.6896355001773956
 10
28.91075418949857
 20
16.24432828174422
 42
0.0703560868358924
 10
28.72213793279128
 20
16.28556074365364
 10
28.62643512245765
 20
16.28556074365364
 10
28.62643512245765
 20
16.35890750163023
 10
28.68005242215816
 20
16.3808482964477
 10
28.68492672103685
 20
16.34184243853422
 10
28.72148397036376
 20
16.37597256472624
 10
28.74341831961606
 20
16.34428030439496
 10
28.79703561759729
 20
16.40522695712591
 10
28.73123256984042
 20
16.46129787606451
 10
28.72148397036376
 20
16.4369192153863
  0
LINE
  5
61F2
330
17
100
AcDbEntity
  8
R-ANNO-DIMS
100
AcDbLine
 10
30.56848754429271
 20
12.97163143942296
 30
0.0
 11
30.56848754429271
 21
11.40515778521601
 31
0.0
  0
LINE
  5
61F3
330
17
100
AcDbEntity
  8
R-ANNO-DIMS
100
AcDbLine
 10
30.81848754429271
 20
11.58515778521601
 30
0.0
 11
32.31849754429271
 21
11.58515778521601
 31
0.0
  0
SOLID
  5
61F4
330
17
100
AcDbEntity
  8
R-ANNO-DIMS
100
AcDbTrace
 10
30.81848754429271
 20
11.62682445188268
 30
0.0
 11
30.81848754429271
 21
11.54349111854934
 31
0.0
 12
30.56848754429271
 22
11.58515778521601
 32
0.0
 13
30.56848754429271
 23
11.58515778521601
 33
0.0
  0
SOLID
  5
61F5
330
17
100
AcDbEntity
  8
R-ANNO-DIMS
100
AcDbTrace
 10
32.31849754429271
 20
11.62682445188268
 30
0.0
 11
32.31849754429271
 21
11.54349111854934
 31
0.0
 12
32.56849754429271
 22
11.58515778521601
 32
0.0
 13
32.56849754429271
 23
11.58515778521601
 33
0.0
  0
MTEXT
  5
61F6
330
17
100
AcDbEntity
  8
R-ANNO-DIMS
100
AcDbMText
 10
31.56849254429271
 20
11.81015778521601
 30
0.0
 40
0.25
 41
0.0
 71
     5
 72
     1
  1
\A1;DLO
 73
     1
 44
1.0
1001
ACAD
1000
MTEXTBEGIN
1070
    73
1070
     1
1070
    44
1040
1.0
1070
    74
1070
     0
1000
MTEXTEND
  0
LINE
  5
61F7
330
17
100
AcDbEntity
  8
R-ANNO-DIMS
100
AcDbLine
 10
28.5684875442927
 20
12.97163143942296
 30
0.0
 11
28.5684875442927
 21
11.40515778521601
 31
0.0
  0
LINE
  5
61F8
330
17
100
AcDbEntity
  8
R-ANNO-DIMS
100
AcDbLine
 10
28.3184875442927
 20
11.58515778521601
 30
0.0
 11
26.8184775442927
 21
11.58515778521601
 31
0.0
  0
SOLID
  5
61F9
330
17
100
AcDbEntity
  8
R-ANNO-DIMS
100
AcDbTrace
 10
28.3184875442927
 20
11.62682445188267
 30
0.0
 11
28.3184875442927
 21
11.54349111854934
 31
0.0
 12
28.5684875442927
 22
11.58515778521601
 32
0.0
 13
28.5684875442927
 23
11.58515778521601
 33
0.0
  0
SOLID
  5
61FA
330
17
100
AcDbEntity
  8
R-ANNO-DIMS
100
AcDbTrace
 10
26.8184775442927
 20
11.62682445188267
 30
0.0
 11
26.8184775442927
 21
11.54349111854934
 31
0.0
 12
26.5684775442927
 22
11.58515778521601
 32
0.0
 13
26.5684775442927
 23
11.58515778521601
 33
0.0
  0
MTEXT
  5
61FB
330
17
100
AcDbEntity
  8
R-ANNO-DIMS
100
AcDbMText
 10
27.5684825442927
 20
11.81015778521601
 30
0.0
 40
0.25
 41
0.0
 71
     5
 72
     1
  1
\A1;DLO
 73
     1
 44
1.0
1001
ACAD
1000
MTEXTBEGIN
1070
    73
1070
     1
1070
    44
1040
1.0
1070
    74
1070
     0
1000
MTEXTEND
  0
LINE
  5
61FC
330
17
100
AcDbEntity
  8
R-ANNO-DIMS
100
AcDbLine
 10
28.5684875442927
 20
12.97163143942296
 30
0.0
 11
28.5684875442927
 21
11.40515778521601
 31
0.0
  0
LINE
  5
61FD
330
17
100
AcDbEntity
  8
R-ANNO-DIMS
100
AcDbLine
 10
30.56848754429271
 20
12.97163143942296
 30
0.0
 11
30.56848754429271
 21
11.40515778521601
 31
0.0
  0
LINE
  5
61FE
330
17
100
AcDbEntity
  8
R-ANNO-DIMS
100
AcDbLine
 10
28.8184875442927
 20
11.58515778521601
 30
0.0
 11
30.31848754429271
 21
11.58515778521601
 31
0.0
  0
SOLID
  5
61FF
330
17
100
AcDbEntity
  8
R-ANNO-DIMS
100
AcDbTrace
 10
28.8184875442927
 20
11.62682445188267
 30
0.0
 11
28.8184875442927
 21
11.54349111854934
 31
0.0
 12
28.5684875442927
 22
11.58515778521601
 32
0.0
 13
28.5684875442927
 23
11.58515778521601
 33
0.0
  0
SOLID
  5
6200
330
17
100
AcDbEntity
  8
R-ANNO-DIMS
100
AcDbTrace
 10
30.31848754429271
 20
11.62682445188267
 30
0.0
 11
30.31848754429271
 21
11.54349111854934
 31
0.0
 12
30.56848754429271
 22
11.58515778521601
 32
0.0
 13
30.56848754429271
 23
11.58515778521601
 33
0.0
  0
MTEXT
  5
6201
330
17
100
AcDbEntity
  8
R-ANNO-DIMS
100
AcDbMText
 10
29.5684875442927
 20
11.81015778521601
 30
0.0
 40
0.25
 41
0.0
 71
     5
 72
     1
  1
\A1;2"
 73
     1
 44
1.0
1001
ACAD
1000
MTEXTBEGIN
1070
    73
1070
     1
1070
    44
1040
1.0
1070
    74
1070
     0
1000
MTEXTEND
  0
LWPOLYLINE
  5
6202
330
17
100
AcDbEntity
  8
R-SWTS-DET1
100
AcDbPolyline
 90
        6
 70
     0
 43
0.0
 10
16.06402193478419
 20
18.1086296146961
 10
16.06402193478419
 20
15.7086396146961
 10
15.86404193478418
 20
15.6586196146961
 10
16.26402193478419
 20
15.5586396146961
 10
16.06402193478419
 20
15.5086396146961
 10
16.06402193478419
 20
13.1086296146961
  0
LINE
  5
6203
330
17
100
AcDbEntity
  8
R-SWTS-DET1
100
AcDbLine
 10
18.0640319347842
 20
13.3586296146961
 30
0.0
 11
16.0640219347842
 21
13.3586296146961
 31
0.0
  0
LINE
  5
6204
330
17
100
AcDbEntity
  8
R-SWTS-DET1
100
AcDbLine
 10
18.06403193478418
 20
17.84663143942296
 30
0.0
 11
16.06402193478418
 21
17.84663143942296
 31
0.0
  0
LWPOLYLINE
  5
6205
330
17
100
AcDbEntity
  8
R-SWTS-DET1
100
AcDbPolyline
 90
        6
 70
     0
 43
0.0
 10
22.0640419347842
 20
13.1086296146961
 10
22.06403193478421
 20
15.4928427875926
 10
22.26401193478421
 20
15.54286278759261
 10
21.86403193478421
 20
15.64284278759261
 10
22.06403193478421
 20
15.6928427875926
 10
22.0640419347842
 20
18.1086296146961
  0
LINE
  5
6206
330
17
100
AcDbEntity
  8
R-SWTS-DET1
100
AcDbLine
 10
20.06403193478419
 20
13.34663143942296
 30
0.0
 11
22.06404193478419
 21
13.34663143942296
 31
0.0
  0
LINE
  5
6207
330
17
100
AcDbEntity
  8
R-SWTS-DET1
100
AcDbLine
 10
20.06403193478419
 20
17.84663143942296
 30
0.0
 11
22.06404193478419
 21
17.84663143942296
 31
0.0
  0
LINE
  5
6208
330
17
100
AcDbEntity
  8
R-SWTS-DET1
100
AcDbLine
 10
18.06403193478418
 20
13.34663143942296
 30
0.0
 11
16.06402193478419
 21
13.34663143942296
 31
0.0
  0
TEXT
  5
6209
330
17
100
AcDbEntity
  8
PART_NUMBERS
100
AcDbText
 10
16.23685399167479
 20
18.36178374765693
 30
0.0
 40
0.25
  1
451VG052 SHALLOW POCKET MULLION
100
AcDbText
  0
TEXT
  5
620A
330
17
100
AcDbEntity
  8
PART_NUMBERS
100
AcDbText
 10
16.23685399167479
 20
18.86178374765693
 30
0.0
 40
0.25
  1
451CG028 DEEP POCKET FILLER
100
AcDbText
  0
LWPOLYLINE
  5
620B
330
17
100
AcDbEntity
  8
R-SWTS-DET1
100
AcDbPolyline
 90
      133
 70
     1
 43
0.0
 10
20.06403193478419
 20
13.49165113639266
 10
19.96153193478419
 20
13.52768143942296
 10
19.96153193478419
 20
13.49868143942297
 10
19.88983193478419
 20
13.49868143942297
 42
-0.1989123673796512
 10
19.87215426525453
 20
13.5060037698933
 10
19.80553193478419
 20
13.57268143942297
 10
19.80553193478419
 20
13.61463143942297
 42
-0.3541185725306985
 10
19.82137370096783
 20
13.63419439143764
 10
19.92353193478419
 20
13.65663143942297
 10
19.96153193478419
 20
13.65663143942297
 10
19.96153193478419
 20
13.62763143942297
 10
19.97353193478419
 20
13.62763143942297
 42
0.4142135623730951
 10
19.99353193478419
 20
13.64763143942297
 10
19.99353193478419
 20
13.67663143942297
 42
0.4142135623730951
 10
19.97353193478419
 20
13.69663143942297
 10
19.77153693478419
 20
13.69663143942297
 42
0.4142135623730951
 10
19.73353193478419
 20
13.65862643942297
 10
19.75553193478419
 20
13.65862643942297
 10
19.75553193478419
 20
13.59662643942297
 10
19.73353193478419
 20
13.59662643942297
 10
19.73353193478419
 20
13.54185038332486
 42
0.1989018846181274
 10
19.74085355223619
 20
13.52417342684229
 10
19.79424966680748
 20
13.47077300460902
 42
-0.6681640521692886
 10
19.78010696076908
 20
13.43663143942297
 10
19.6240319347842
 20
13.43663143942297
 42
-0.4142135623730928
 10
19.5640319347842
 20
13.49663143942297
 10
19.5640319347842
 20
14.31280219699873
 10
19.55403193478419
 20
14.32280219699873
 10
19.5640319347842
 20
14.33280219699873
 10
19.5640319347842
 20
14.56280219699873
 10
19.55403193478419
 20
14.57280219699873
 10
19.5640319347842
 20
14.58280219699873
 10
19.56403193478419
 20
15.07263643942296
 42
-0.4142135623730951
 10
19.66403193478419
 20
15.17263643942296
 10
19.73053193478419
 20
15.17263643942296
 42
-0.4142135623730951
 10
19.75553193478419
 20
15.14763643942296
 10
19.75553193478419
 20
15.11063643942296
 10
19.73353193478419
 20
15.11063643942296
 42
0.4142135623730951
 10
19.77153693478419
 20
15.07263143942297
 10
19.97353193478419
 20
15.07263143942297
 42
0.4142135623730951
 10
19.99353193478419
 20
15.09263143942296
 10
19.99353193478419
 20
15.12163143942296
 42
0.4142135623730951
 10
19.97353193478419
 20
15.14163143942296
 10
19.96153193478419
 20
15.14163143942296
 10
19.96153193478419
 20
15.11263143942296
 10
19.92353193478419
 20
15.11263143942296
 10
19.82137370096783
 20
15.13506848740829
 42
-0.3541185725306792
 10
19.80553193478419
 20
15.15463143942296
 10
19.80553193478419
 20
15.19658143942297
 10
19.87215426525452
 20
15.26325910895263
 42
-0.1989123673796507
 10
19.88983193478419
 20
15.27058143942296
 10
19.96153193478419
 20
15.27058143942296
 10
19.96153193478419
 20
15.24158143942297
 10
20.06403193478419
 20
15.27761174245326
 10
20.06403193478419
 20
15.41263143942297
 10
20.06403193478419
 20
17.84663143942296
 10
18.06403193478418
 20
17.84663143942296
 10
18.06403193478418
 20
17.39263052705953
 10
18.14403193478418
 20
17.39263052705953
 10
18.14403193478419
 20
17.28463052705953
 42
0.4142135623730951
 10
18.20603193478418
 20
17.22263052705952
 10
18.22403193478418
 20
17.22263052705953
 10
18.22403193478419
 20
17.41063052705953
 42
0.4142135623730951
 10
18.16203193478418
 20
17.47263052705953
 10
18.14403193478418
 20
17.47263052705953
 10
18.14403193478418
 20
17.69663143942296
 42
-0.4142135623730929
 10
18.20403193478419
 20
17.75663143942296
 10
19.92403193478419
 20
17.75663143942296
 42
-0.4142135623730951
 10
19.98403193478419
 20
17.69663143942296
 10
19.98403193478419
 20
16.99813143942297
 42
-0.4142135623730951
 10
19.97403193478419
 20
16.98813143942297
 10
19.97403193478419
 20
16.64413143942298
 42
-0.4142135623730951
 10
19.98403193478419
 20
16.63413143942298
 10
19.98403193478419
 20
16.06713143942296
 42
-0.4142135623730951
 10
19.97403193478419
 20
16.05713143942296
 10
19.97403193478419
 20
15.71313143942297
 42
-0.4142135623730951
 10
19.98403193478419
 20
15.70313143942297
 10
19.98403193478419
 20
15.42058143942297
 42
-0.4142135623730951
 10
19.91403193478419
 20
15.35058143942296
 10
19.8939765055356
 20
15.35058143942296
 42
0.1990202627215682
 10
19.81969947683946
 20
15.31979682197991
 10
19.75845370402296
 20
15.25850017607879
 42
-0.1990202627215676
 10
19.74430569855703
 20
15.25263643942296
 10
19.65403193478419
 20
15.25263643942296
 42
0.4142135623730951
 10
19.48403193478419
 20
15.08263643942296
 10
19.48403193478419
 20
14.80380219699874
 42
-0.4142135623731081
 10
19.46403193478419
 20
14.78380219699874
 10
19.25903193478418
 20
14.78380219699874
 42
0.4142135623731173
 10
19.18903193478418
 20
14.71380219699873
 10
19.1890319347842
 20
14.57280219699874
 10
19.25453193478419
 20
14.57280219699875
 42
0.9999999999999998
 10
19.25453193478419
 20
14.60380219699874
 10
19.25403193478419
 20
14.60380219699874
 42
-0.4142135623730951
 10
19.23903193478419
 20
14.61880219699874
 10
19.23903193478419
 20
14.69880219699874
 42
-0.4142135623730976
 10
19.25403193478419
 20
14.71380219699873
 10
19.46903193478419
 20
14.71380219699873
 42
-0.4142135623730938
 10
19.48403193478419
 20
14.69880219699874
 10
19.48403193478419
 20
14.61879809836274
 42
-0.4190234982698207
 10
19.46878603314484
 20
14.60380011408539
 42
1.00823086916291
 10
19.46853193478419
 20
14.57280219699874
 10
19.48403193478419
 20
14.57280219699873
 10
19.48403193478419
 20
14.32280219699873
 10
19.46853193478419
 20
14.32280219699873
 42
0.9999999999999998
 10
19.46853193478419
 20
14.29180219699874
 10
19.46903193478419
 20
14.29180219699874
 42
-0.4142135623730951
 10
19.48403193478419
 20
14.27680219699874
 10
19.48403193478419
 20
14.19680219699873
 42
-0.4142135623730938
 10
19.46903193478419
 20
14.18180219699873
 10
19.25403193478419
 20
14.18180219699873
 42
-0.4142135623730951
 10
19.23903193478419
 20
14.19680219699873
 10
19.23903193478419
 20
14.27680629563472
 42
-0.4190234982697588
 10
19.25427783642353
 20
14.29180427991207
 42
1.008230869162782
 10
19.25453193478419
 20
14.32280219699872
 10
19.1890319347842
 20
14.32280219699872
 10
19.18903193478418
 20
14.18180219699873
 42
0.4142135623731173
 10
19.25903193478418
 20
14.11180219699873
 10
19.4640319347842
 20
14.11180219699873
 42
-0.4142135623730887
 10
19.4840319347842
 20
14.09180219699873
 10
19.4840319347842
 20
13.49663143942297
 42
-0.4142135623730951
 10
19.4240319347842
 20
13.43663143942297
 10
18.20403193478419
 20
13.43663143942296
 42
-0.4142135623730971
 10
18.14403193478419
 20
13.49663143942296
 10
18.14403193478419
 20
13.72063052705955
 10
18.16203193478418
 20
13.72063052705954
 42
0.4142135623730951
 10
18.22403193478418
 20
13.78263052705954
 10
18.22403193478419
 20
13.97063052705953
 10
18.20603193478418
 20
13.97063052705953
 42
0.4142135623730951
 10
18.14403193478419
 20
13.90863052705953
 10
18.14403193478419
 20
13.80063052705953
 10
18.06403193478418
 20
13.80063052705953
 10
18.06403193478418
 20
13.34663143942296
 10
20.06403193478419
 20
13.34663143942296
  0
LWPOLYLINE
  5
620C
330
17
100
AcDbEntity
  8
R-SWTS-DET1
100
AcDbPolyline
 90
       98
 70
     1
 43
0.0
 10
18.30669016860054
 20
16.34659893088844
 42
0.3541185725306761
 10
18.32253193478418
 20
16.36616188290311
 10
18.32253193478418
 20
16.40811188290311
 10
18.25590960431385
 20
16.47478955243277
 42
0.1989123673796582
 10
18.23823193478419
 20
16.48211188290311
 10
18.16653193478419
 20
16.48211188290311
 10
18.16653193478419
 20
16.45311188290311
 10
18.06403193478418
 20
16.48914218593341
 10
18.06403193478418
 20
17.39161188290311
 10
18.14403193478419
 20
17.39161188290311
 10
18.14403193478419
 20
17.22161188290311
 10
18.23003193478418
 20
17.22161188290312
 10
18.23003193478418
 20
17.28361188290312
 10
18.44703193478419
 20
17.20461188290311
 42
-1.003724381894511
 10
18.42303193478419
 20
17.13911188290312
 10
18.3105335787279
 20
17.18011128377696
 42
0.5183857430387555
 10
18.28368583935516
 20
17.16146608990611
 42
-0.4120800626174657
 10
18.26368637075215
 20
17.14161188290312
 10
18.16403193478419
 20
17.14161188290312
 42
0.4142135623730951
 10
18.14403193478419
 20
17.12161188290312
 10
18.14403193478419
 20
16.99761188290312
 42
0.4142135623730951
 10
18.15403193478418
 20
16.98761188290312
 10
18.15403193478418
 20
16.82561188290312
 10
18.14403193478419
 20
16.81561188290312
 10
18.15403193478418
 20
16.80561188290312
 10
18.15403193478418
 20
16.64361188290312
 42
0.4142135623730951
 10
18.14403193478419
 20
16.63361188290312
 10
18.14403193478419
 20
16.63211188290311
 42
0.4142135623730951
 10
18.21403193478419
 20
16.56211188290311
 10
18.24408736403277
 20
16.56211188290311
 42
-0.1990202627215674
 10
18.31836439272892
 20
16.53132726546005
 10
18.37966511989822
 20
16.46997561955894
 42
0.1990202627215459
 10
18.39381312536415
 20
16.46411188290312
 10
18.97403193478419
 20
16.46411188290311
 42
-0.4142135623730888
 10
19.14403193478419
 20
16.29411188290311
 10
19.14403193478419
 20
14.89911188290312
 42
-0.4142135623730889
 10
18.97403193478419
 20
14.72911188290312
 10
18.39381312536415
 20
14.72911188290311
 42
0.1990202627215466
 10
18.37966511989822
 20
14.72324814624729
 10
18.31836439272892
 20
14.66189650034618
 42
-0.1990202627215655
 10
18.24408736403277
 20
14.63111188290312
 10
18.21403193478419
 20
14.63111188290312
 42
0.4142135623730951
 10
18.14403193478419
 20
14.56111188290312
 10
18.14403193478419
 20
14.55961188290311
 42
0.4142135623730951
 10
18.15403193478418
 20
14.54961188290311
 10
18.15403193478418
 20
14.38761188290311
 10
18.14403193478419
 20
14.37761188290311
 10
18.15403193478418
 20
14.36761188290311
 10
18.15403193478418
 20
14.20561188290311
 42
0.4142135623730951
 10
18.14403193478419
 20
14.19561188290311
 10
18.14403193478419
 20
14.07161188290311
 42
0.4142135623730951
 10
18.16403193478419
 20
14.05161188290311
 10
18.26368637075219
 20
14.05161188290311
 42
-0.4120800626174634
 10
18.28368583935516
 20
14.03175767590012
 42
0.5183857430387571
 10
18.3105335787279
 20
14.01311248202927
 10
18.42303193478419
 20
14.05411188290311
 42
-1.003724381894516
 10
18.44703193478419
 20
13.98861188290311
 10
18.23003193478418
 20
13.90961188290311
 10
18.23003193478418
 20
13.97161188290311
 10
18.14403193478419
 20
13.97161188290311
 10
18.14403193478419
 20
13.80161188290311
 10
18.06403193478418
 20
13.80161188290311
 10
18.06403193478418
 20
14.70408157987282
 10
18.16653193478419
 20
14.74011188290311
 10
18.16653193478419
 20
14.71111188290312
 10
18.23823193478419
 20
14.71111188290312
 42
0.1989123673796506
 10
18.25590960431385
 20
14.71843421337345
 10
18.32253193478418
 20
14.78511188290311
 10
18.32253193478418
 20
14.82706188290311
 42
0.3541185725306762
 10
18.30669016860054
 20
14.84662483491779
 10
18.20453193478419
 20
14.86906188290312
 10
18.16653193478419
 20
14.86906188290312
 10
18.16653193478419
 20
14.84006188290312
 10
18.15453193478419
 20
14.84006188290312
 42
-0.4142135623730951
 10
18.13453193478419
 20
14.86006188290312
 10
18.13453193478419
 20
14.88906188290312
 42
-0.4142135623730951
 10
18.15453193478419
 20
14.90906188290312
 10
18.35652693478419
 20
14.90906188290312
 42
-0.4142135623730951
 10
18.39453193478419
 20
14.87105688290312
 10
18.37253193478419
 20
14.87105688290312
 10
18.37253193478419
 20
14.82911188290311
 42
0.4142135623731212
 10
18.39253193478419
 20
14.80911188290311
 10
18.96403193478419
 20
14.80911188290312
 42
0.4142135623730898
 10
19.06403193478418
 20
14.90911188290312
 10
19.06403193478418
 20
16.28411188290311
 42
0.4142135623730898
 10
18.96403193478418
 20
16.38411188290311
 10
18.39253193478419
 20
16.38411188290312
 42
0.4142135623730951
 10
18.37253193478419
 20
16.36411188290312
 10
18.37253193478419
 20
16.32216688290311
 10
18.39453193478419
 20
16.32216688290311
 42
-0.4142135623730951
 10
18.35652693478419
 20
16.28416188290311
 10
18.15453193478419
 20
16.28416188290311
 42
-0.4142135623730951
 10
18.13453193478419
 20
16.30416188290311
 10
18.13453193478419
 20
16.33316188290311
 42
-0.4142135623730951
 10
18.15453193478419
 20
16.35316188290311
 10
18.16653193478419
 20
16.35316188290311
 10
18.16653193478419
 20
16.32416188290311
 10
18.20453193478419
 20
16.32416188290311
  0
LINE
  5
620D
330
17
100
AcDbEntity
  8
R-SWTS-DET3
100
AcDbLine
 10
18.43903193478418
 20
15.09750349543798
 30
0.0
 11
16.06403193478418
 21
15.09750349543798
 31
0.0
  0
LINE
  5
620E
330
17
100
AcDbEntity
  8
R-SWTS-DET3
100
AcDbLine
 10
18.43903193478418
 20
15.34750349543798
 30
0.0
 11
16.06403193478418
 21
15.34750349543798
 31
0.0
  0
LINE
  5
620F
330
17
100
AcDbEntity
  8
R-SWTS-DET3
100
AcDbLine
 10
18.43903193478418
 20
15.84750349543798
 30
0.0
 11
16.06403193478418
 21
15.84750349543798
 31
0.0
  0
LINE
  5
6210
330
17
100
AcDbEntity
  8
R-SWTS-DET3
100
AcDbLine
 10
18.43903193478418
 20
16.09750349543797
 30
0.0
 11
16.06403193478418
 21
16.09750349543797
 31
0.0
  0
LINE
  5
6211
330
17
100
AcDbEntity
  8
R-SWTS-DET2
100
AcDbLine
 10
18.06403193478418
 20
14.58019978098313
 30
0.0
 11
16.06403193478418
 21
14.58019978098313
 31
0.0
  0
LINE
  5
6212
330
17
100
AcDbEntity
  8
R-SWTS-DET2
100
AcDbLine
 10
18.06403193478418
 20
16.61480720989281
 30
0.0
 11
16.06403193478418
 21
16.61480720989281
 31
0.0
  0
LINE
  5
6213
330
17
100
AcDbEntity
  8
R-SWTS-DET3
100
AcDbLine
 10
18.43903193478418
 20
15.09750349543798
 30
0.0
 11
18.43903193478418
 21
16.09750349543797
 31
0.0
  0
LINE
  5
6214
330
17
100
AcDbEntity
  8
R-SWTS-DET3
100
AcDbLine
 10
18.18903193478418
 20
15.34750349543798
 30
0.0
 11
18.18903193478418
 21
15.84750349543798
 31
0.0
  0
LINE
  5
6215
330
17
100
AcDbEntity
  8
R-SWTS-DET3
100
AcDbLine
 10
19.6890319347842
 20
13.88507305195782
 30
0.0
 11
22.0640319347842
 21
13.88507305195782
 31
0.0
  0
LINE
  5
6216
330
17
100
AcDbEntity
  8
R-SWTS-DET3
100
AcDbLine
 10
19.6890319347842
 20
14.13507305195782
 30
0.0
 11
22.0640319347842
 21
14.13507305195782
 31
0.0
  0
LINE
  5
6217
330
17
100
AcDbEntity
  8
R-SWTS-DET3
100
AcDbLine
 10
19.6890319347842
 20
14.63507305195782
 30
0.0
 11
22.0640319347842
 21
14.63507305195782
 31
0.0
  0
LINE
  5
6218
330
17
100
AcDbEntity
  8
R-SWTS-DET3
100
AcDbLine
 10
19.6890319347842
 20
14.88507305195782
 30
0.0
 11
22.0640319347842
 21
14.88507305195782
 31
0.0
  0
LINE
  5
6219
330
17
100
AcDbEntity
  8
R-SWTS-DET2
100
AcDbLine
 10
20.0640319347842
 20
13.36776933750298
 30
0.0
 11
22.0640319347842
 21
13.36776933750298
 31
0.0
  0
LINE
  5
621A
330
17
100
AcDbEntity
  8
R-SWTS-DET2
100
AcDbLine
 10
20.0640319347842
 20
15.40237676641266
 30
0.0
 11
22.0640319347842
 21
15.40237676641266
 31
0.0
  0
LINE
  5
621B
330
17
100
AcDbEntity
  8
R-SWTS-DET3
100
AcDbLine
 10
19.6890319347842
 20
13.88507305195782
 30
0.0
 11
19.6890319347842
 21
14.88507305195782
 31
0.0
  0
LINE
  5
621C
330
17
100
AcDbEntity
  8
R-SWTS-DET3
100
AcDbLine
 10
19.9390319347842
 20
14.13507305195782
 30
0.0
 11
19.9390319347842
 21
14.63507305195782
 31
0.0
  0
LWPOLYLINE
  5
621D
330
17
100
AcDbEntity
  8
R-SWTS-DET2
100
AcDbPolyline
 90
       31
 70
     1
 43
0.0
 10
19.95002990661975
 20
13.51158445610402
 10
19.95490420721771
 20
13.53840098264296
 10
20.06213880489946
 20
13.50427085852183
 10
20.06701310377815
 20
13.44332420786176
 10
20.0640319347842
 20
13.36776933750298
 10
20.09504147740544
 20
13.37785987906129
 42
0.1257100272134179
 10
20.14678380499909
 20
13.60985128108335
 42
-0.2260837189018228
 10
20.1965016636432
 20
13.76343684151495
 10
20.30744228180354
 20
13.85899215117465
 42
0.6449762263124317
 10
20.29570093932989
 20
13.88492644319283
 10
20.1664640037005
 20
13.88334670616478
 42
0.1518691569180708
 10
20.12202884935124
 20
13.86699392956845
 10
20.06210307008277
 20
13.8284907412732
 42
-0.0293454671788447
 10
20.01022042689014
 20
13.8110958520703
 10
19.8884264170531
 20
13.79386556248677
 42
-0.6538117075652882
 10
19.88143968008774
 20
13.81410637338963
 10
20.04668859757766
 20
13.85819812061196
 42
0.8886355728344963
 10
20.04462716667827
 20
13.88334670616478
 10
19.91038154628561
 20
13.88334670616478
 42
0.0642046489364144
 10
19.72176528957833
 20
13.84091424425535
 42
0.6896355001773956
 10
19.72176528957833
 20
13.73830551386725
 42
0.0703560868358924
 10
19.91038154628561
 20
13.69707305195782
 10
20.00608435661925
 20
13.69707305195782
 10
20.00608435661925
 20
13.62372629398123
 10
19.95246705691873
 20
13.60178549916376
 10
19.94759275804004
 20
13.64079135707724
 10
19.91103550871313
 20
13.60666123088522
 10
19.88910115946084
 20
13.6383534912165
 10
19.8354838614796
 20
13.57740683848556
 10
19.90128690923648
 20
13.52133591954695
 10
19.91103550871313
 20
13.54571458022516
  0
LWPOLYLINE
  5
621E
330
17
100
AcDbEntity
  8
R-SWTS-DET2
100
AcDbPolyline
 90
       31
 70
     1
 43
0.0
 10
19.95002990661975
 20
15.25856164781162
 10
19.95490420721771
 20
15.23174512127268
 10
20.06213880489946
 20
15.26587524539381
 10
20.06701310377815
 20
15.32682189605388
 10
20.0640319347842
 20
15.40237676641266
 10
20.09504147740544
 20
15.39228622485434
 42
-0.1257100272134179
 10
20.14678380499909
 20
15.16029482283229
 42
0.2260837189018228
 10
20.1965016636432
 20
15.00670926240068
 10
20.30744228180354
 20
14.91115395274099
 42
-0.6449762263124317
 10
20.29570093932989
 20
14.88521966072281
 10
20.1664640037005
 20
14.88679939775086
 42
-0.1518691569180708
 10
20.12202884935124
 20
14.90315217434719
 10
20.06210307008276
 20
14.94165536264244
 42
0.0293454671788447
 10
20.01022042689014
 20
14.95905025184534
 10
19.8884264170531
 20
14.97628054142887
 42
0.6538117075652882
 10
19.88143968008774
 20
14.95603973052601
 10
20.04668859757766
 20
14.91194798330368
 42
-0.8886355728344963
 10
20.04462716667827
 20
14.88679939775086
 10
19.91038154628561
 20
14.88679939775086
 42
-0.0642046489364144
 10
19.72176528957833
 20
14.92923185966029
 42
-0.6896355001773956
 10
19.72176528957833
 20
15.03184059004839
 42
-0.0703560868358924
 10
19.91038154628561
 20
15.07307305195782
 10
20.00608435661925
 20
15.07307305195782
 10
20.00608435661925
 20
15.14641980993441
 10
19.95246705691873
 20
15.16836060475188
 10
19.94759275804004
 20
15.1293547468384
 10
19.91103550871313
 20
15.16348487303041
 10
19.88910115946084
 20
15.13179261269913
 10
19.8354838614796
 20
15.19273926543008
 10
19.90128690923648
 20
15.24881018436868
 10
19.91103550871313
 20
15.22443152369048
  0
LWPOLYLINE
  5
621F
330
17
100
AcDbEntity
  8
R-SWTS-DET2
100
AcDbPolyline
 90
       31
 70
     1
 43
0.0
 10
18.17803396294863
 20
14.72401489958418
 10
18.17315966235067
 20
14.75083142612311
 10
18.06592506466891
 20
14.71670130200198
 10
18.06105076579022
 20
14.65575465134191
 10
18.06403193478418
 20
14.58019978098313
 10
18.03302239216294
 20
14.59029032254145
 42
-0.1257100272134179
 10
17.98128006456929
 20
14.8222817245635
 42
0.2260837189018228
 10
17.93156220592519
 20
14.97586728499511
 10
17.82062158776484
 20
15.0714225946548
 42
-0.6449762263124317
 10
17.8323629302385
 20
15.09735688667299
 10
17.96159986586788
 20
15.09577714964493
 42
-0.1518691569180708
 10
18.00603502021714
 20
15.0794243730486
 10
18.06596079948562
 20
15.04092118475335
 42
0.0293454671788447
 10
18.11784344267824
 20
15.02352629555045
 10
18.23963745251528
 20
15.00629600596693
 42
0.6538117075652882
 10
18.24662418948064
 20
15.02653681686978
 10
18.08137527199072
 20
15.07062856409211
 42
-0.8886355728344963
 10
18.08343670289011
 20
15.09577714964493
 10
18.21768232328277
 20
15.09577714964493
 42
-0.0642046489364144
 10
18.40629857999005
 20
15.05334468773551
 42
-0.6896355001773956
 10
18.40629857999006
 20
14.9507359573474
 42
-0.0703560868358924
 10
18.21768232328277
 20
14.90950349543797
 10
18.12197951294913
 20
14.90950349543797
 10
18.12197951294913
 20
14.83615673746139
 10
18.17559681264965
 20
14.81421594264391
 10
18.18047111152834
 20
14.85322180055739
 10
18.21702836085525
 20
14.81909167436538
 10
18.23896271010754
 20
14.85078393469666
 10
18.29258000808877
 20
14.78983728196571
 10
18.2267769603319
 20
14.73376636302711
 10
18.21702836085525
 20
14.75814502370531
  0
LWPOLYLINE
  5
6220
330
17
100
AcDbEntity
  8
R-SWTS-DET2
100
AcDbPolyline
 90
       31
 70
     1
 43
0.0
 10
18.17803396294863
 20
16.47099209129177
 10
18.17315966235067
 20
16.44417556475283
 10
18.06592506466891
 20
16.47830568887396
 10
18.06105076579022
 20
16.53925233953404
 10
18.06403193478418
 20
16.61480720989281
 10
18.03302239216294
 20
16.6047166683345
 42
0.1257100272134179
 10
17.98128006456929
 20
16.37272526631244
 42
-0.2260837189018228
 10
17.93156220592519
 20
16.21913970588084
 10
17.82062158776484
 20
16.12358439622115
 42
0.6449762263124317
 10
17.8323629302385
 20
16.09765010420296
 10
17.96159986586788
 20
16.09922984123101
 42
0.1518691569180708
 10
18.00603502021714
 20
16.11558261782734
 10
18.06596079948562
 20
16.15408580612259
 42
-0.0293454671788447
 10
18.11784344267824
 20
16.17148069532549
 10
18.23963745251528
 20
16.18871098490902
 42
-0.6538117075652882
 10
18.24662418948064
 20
16.16847017400616
 10
18.08137527199072
 20
16.12437842678383
 42
0.8886355728344963
 10
18.08343670289011
 20
16.09922984123101
 10
18.21768232328277
 20
16.09922984123101
 42
0.0642046489364144
 10
18.40629857999005
 20
16.14166230314044
 42
0.6896355001773956
 10
18.40629857999006
 20
16.24427103352855
 42
0.0703560868358924
 10
18.21768232328277
 20
16.28550349543797
 10
18.12197951294913
 20
16.28550349543797
 10
18.12197951294913
 20
16.35885025341456
 10
18.17559681264965
 20
16.38079104823203
 10
18.18047111152834
 20
16.34178519031856
 10
18.21702836085525
 20
16.37591531651057
 10
18.23896271010754
 20
16.34422305617929
 10
18.29258000808877
 20
16.40516970891023
 10
18.2267769603319
 20
16.46124062784884
 10
18.21702836085525
 20
16.43686196717063
  0
LINE
  5
6221
330
17
100
AcDbEntity
  8
R-ANNO-DIMS
100
AcDbLine
 10
20.06403193478419
 20
12.9836296146961
 30
0.0
 11
20.06403193478419
 21
11.4286296146961
 31
0.0
  0
LINE
  5
6222
330
17
100
AcDbEntity
  8
R-ANNO-DIMS
100
AcDbLine
 10
20.3140319347842
 20
11.6086296146961
 30
0.0
 11
21.8140419347842
 21
11.6086296146961
 31
0.0
  0
SOLID
  5
6223
330
17
100
AcDbEntity
  8
R-ANNO-DIMS
100
AcDbTrace
 10
20.3140319347842
 20
11.65029628136277
 30
0.0
 11
20.3140319347842
 21
11.56696294802944
 31
0.0
 12
20.06403193478419
 22
11.6086296146961
 32
0.0
 13
20.06403193478419
 23
11.6086296146961
 33
0.0
  0
SOLID
  5
6224
330
17
100
AcDbEntity
  8
R-ANNO-DIMS
100
AcDbTrace
 10
21.8140419347842
 20
11.65029628136277
 30
0.0
 11
21.8140419347842
 21
11.56696294802944
 31
0.0
 12
22.06404193478419
 22
11.6086296146961
 32
0.0
 13
22.06404193478419
 23
11.6086296146961
 33
0.0
  0
MTEXT
  5
6225
330
17
100
AcDbEntity
  8
R-ANNO-DIMS
100
AcDbMText
 10
21.06403693478419
 20
11.8336296146961
 30
0.0
 40
0.25
 41
0.0
 71
     5
 72
     1
  1
\A1;DLO
 73
     1
 44
1.0
1001
ACAD
1000
MTEXTBEGIN
1070
    73
1070
     1
1070
    44
1040
1.0
1070
    74
1070
     0
1000
MTEXTEND
  0
LINE
  5
6226
330
17
100
AcDbEntity
  8
R-ANNO-DIMS
100
AcDbLine
 10
18.06403193478418
 20
12.97163143942296
 30
0.0
 11
18.06403193478418
 21
11.4286296146961
 31
0.0
  0
LINE
  5
6227
330
17
100
AcDbEntity
  8
R-ANNO-DIMS
100
AcDbLine
 10
17.81403193478418
 20
11.6086296146961
 30
0.0
 11
16.31402193478419
 21
11.6086296146961
 31
0.0
  0
SOLID
  5
6228
330
17
100
AcDbEntity
  8
R-ANNO-DIMS
100
AcDbTrace
 10
17.81403193478418
 20
11.65029628136277
 30
0.0
 11
17.81403193478418
 21
11.56696294802944
 31
0.0
 12
18.06403193478418
 22
11.6086296146961
 32
0.0
 13
18.06403193478418
 23
11.6086296146961
 33
0.0
  0
SOLID
  5
6229
330
17
100
AcDbEntity
  8
R-ANNO-DIMS
100
AcDbTrace
 10
16.31402193478419
 20
11.65029628136277
 30
0.0
 11
16.31402193478419
 21
11.56696294802944
 31
0.0
 12
16.06402193478419
 22
11.6086296146961
 32
0.0
 13
16.06402193478419
 23
11.6086296146961
 33
0.0
  0
MTEXT
  5
622A
330
17
100
AcDbEntity
  8
R-ANNO-DIMS
100
AcDbMText
 10
17.06402693478419
 20
11.8336296146961
 30
0.0
 40
0.25
 41
0.0
 71
     5
 72
     1
  1
\A1;DLO
 73
     1
 44
1.0
1001
ACAD
1000
MTEXTBEGIN
1070
    73
1070
     1
1070
    44
1040
1.0
1070
    74
1070
     0
1000
MTEXTEND
  0
LINE
  5
622B
330
17
100
AcDbEntity
  8
R-ANNO-DIMS
100
AcDbLine
 10
18.06403193478419
 20
12.9836296146961
 30
0.0
 11
18.06403193478419
 21
11.4286296146961
 31
0.0
  0
LINE
  5
622C
330
17
100
AcDbEntity
  8
R-ANNO-DIMS
100
AcDbLine
 10
20.06403193478419
 20
12.9836296146961
 30
0.0
 11
20.06403193478419
 21
11.4286296146961
 31
0.0
  0
LINE
  5
622D
330
17
100
AcDbEntity
  8
R-ANNO-DIMS
100
AcDbLine
 10
18.31403193478419
 20
11.6086296146961
 30
0.0
 11
19.81403193478419
 21
11.6086296146961
 31
0.0
  0
SOLID
  5
622E
330
17
100
AcDbEntity
  8
R-ANNO-DIMS
100
AcDbTrace
 10
18.31403193478419
 20
11.65029628136277
 30
0.0
 11
18.31403193478419
 21
11.56696294802944
 31
0.0
 12
18.06403193478419
 22
11.6086296146961
 32
0.0
 13
18.06403193478419
 23
11.6086296146961
 33
0.0
  0
SOLID
  5
622F
330
17
100
AcDbEntity
  8
R-ANNO-DIMS
100
AcDbTrace
 10
19.81403193478419
 20
11.65029628136277
 30
0.0
 11
19.81403193478419
 21
11.56696294802944
 31
0.0
 12
20.06403193478419
 22
11.6086296146961
 32
0.0
 13
20.06403193478419
 23
11.6086296146961
 33
0.0
  0
MTEXT
  5
6230
330
17
100
AcDbEntity
  8
R-ANNO-DIMS
100
AcDbMText
 10
19.06403193478419
 20
11.8336296146961
 30
0.0
 40
0.25
 41
0.0
 71
     5
 72
     1
  1
\A1;2"
 73
     1
 44
1.0
1001
ACAD
1000
MTEXTBEGIN
1070
    73
1070
     1
1070
    44
1040
1.0
1070
    74
1070
     0
1000
MTEXTEND
  0
LWPOLYLINE
  5
6231
330
17
100
AcDbEntity
  8
R-SWTS-DET1
100
AcDbPolyline
 90
        6
 70
     0
 43
0.0
 10
36.92762903849251
 20
18.08263143942296
 10
36.92762903849251
 20
15.68264143942296
 10
36.72764903849251
 20
15.63262143942296
 10
37.12762903849252
 20
15.53264143942296
 10
36.92762903849251
 20
15.48264143942296
 10
36.92762903849251
 20
13.08263143942296
  0
LINE
  5
6232
330
17
100
AcDbEntity
  8
R-SWTS-DET1
100
AcDbLine
 10
38.9276390384925
 20
13.34663143942296
 30
0.0
 11
36.9276290384925
 21
13.34663143942296
 31
0.0
  0
LINE
  5
6233
330
17
100
AcDbEntity
  8
R-SWTS-DET1
100
AcDbLine
 10
38.92763903849251
 20
17.84663143942296
 30
0.0
 11
36.92762903849251
 21
17.84663143942296
 31
0.0
  0
LWPOLYLINE
  5
6234
330
17
100
AcDbEntity
  8
R-SWTS-DET1
100
AcDbPolyline
 90
        6
 70
     0
 43
0.0
 10
42.92764903849252
 20
13.08263143942296
 10
42.92764903849252
 20
15.48262143942295
 10
43.12762903849252
 20
15.53264143942296
 10
42.72764903849251
 20
15.63262143942296
 10
42.92764903849252
 20
15.68262143942296
 10
42.92764903849252
 20
18.08263143942296
  0
LINE
  5
6235
330
17
100
AcDbEntity
  8
R-SWTS-DET1
100
AcDbLine
 10
40.92763903849252
 20
13.34663143942296
 30
0.0
 11
42.92764903849252
 21
13.34663143942296
 31
0.0
  0
LINE
  5
6236
330
17
100
AcDbEntity
  8
R-SWTS-DET1
100
AcDbLine
 10
40.92763903849251
 20
17.83263143942296
 30
0.0
 11
42.92764903849251
 21
17.83263143942296
 31
0.0
  0
LINE
  5
6237
330
17
100
AcDbEntity
  8
R-SWTS-DET1
100
AcDbLine
 10
40.9276390384925
 20
17.84663143942296
 30
0.0
 11
42.92764903849252
 21
17.84663143942296
 31
0.0
  0
TEXT
  5
6238
330
17
100
AcDbEntity
  8
PART_NUMBERS
100
AcDbText
 10
37.10046109538313
 20
18.33615700752843
 30
0.0
 40
0.25
  1
451CG002 POCKET FILLER
100
AcDbText
  0
TEXT
  5
6239
330
17
100
AcDbEntity
  8
PART_NUMBERS
100
AcDbText
 10
37.10046109538313
 20
18.83615700752843
 30
0.0
 40
0.25
  1
451VG001 MULLION
100
AcDbText
  0
LWPOLYLINE
  5
623A
330
17
100
AcDbEntity
  8
R-SWTS-DET1
100
AcDbPolyline
 90
       98
 70
     1
 43
0.0
 10
40.8251390384925
 20
14.8690470560895
 10
40.7871390384925
 20
14.8690470560895
 10
40.68498080467614
 20
14.84661000810418
 42
0.3541185725306792
 10
40.6691390384925
 20
14.8270470560895
 10
40.6691390384925
 20
14.7850970560895
 10
40.73576136896284
 20
14.71841938655984
 42
0.1989123673796537
 10
40.7534390384925
 20
14.7110970560895
 10
40.8251390384925
 20
14.7110970560895
 10
40.8251390384925
 20
14.7400970560895
 10
40.9276390384925
 20
14.7040667530592
 10
40.9276390384925
 20
13.8015970560895
 10
40.8476390384925
 20
13.8015970560895
 10
40.8476390384925
 20
13.9715970560895
 10
40.7616390384925
 20
13.97159705608949
 10
40.7616390384925
 20
13.9095970560895
 10
40.5446390384925
 20
13.9885970560895
 42
-1.003724381894516
 10
40.5686390384925
 20
14.05409705608949
 10
40.68113739454878
 20
14.01309765521565
 42
0.5183857430387767
 10
40.70798513392154
 20
14.0317428490865
 42
-0.4120800626174649
 10
40.72798460252454
 20
14.0515970560895
 10
40.8376390384925
 20
14.0515970560895
 42
0.4378145317003978
 10
40.8476390384925
 20
14.0615970560895
 10
40.8476390384925
 20
14.18559705608949
 42
0.2907175366164647
 10
40.8376390384925
 20
14.20559705608949
 10
40.8376390384925
 20
14.36759705608949
 10
40.8476390384925
 20
14.37759705608949
 10
40.8376390384925
 20
14.38759705608949
 10
40.8376390384925
 20
14.54227654801381
 42
0.2679491924311257
 10
40.8476390384925
 20
14.5595970560895
 10
40.8476390384925
 20
14.5610970560895
 42
0.4142135623730951
 10
40.7776390384925
 20
14.6310970560895
 10
40.74758360924391
 20
14.6310970560895
 42
-0.1990202627215669
 10
40.67330658054777
 20
14.66188167353256
 10
40.61200585337847
 20
14.72323331943367
 42
0.1990202627215582
 10
40.59785784791254
 20
14.72909705608949
 10
40.51763903849248
 20
14.72909705608949
 42
-0.4142135623730753
 10
40.3476390384925
 20
14.89909705608949
 10
40.3476390384925
 20
16.29409705608949
 42
-0.4142135623730693
 10
40.51763903849248
 20
16.46409705608949
 10
40.59785784791254
 20
16.4640970560895
 42
0.1990202627215434
 10
40.61200585337847
 20
16.46996079274532
 10
40.67330658054777
 20
16.53131243864643
 42
-0.1990202627215654
 10
40.74758360924391
 20
16.56209705608949
 10
40.77763903849251
 20
16.56209705608949
 42
0.4142135623730951
 10
40.84763903849251
 20
16.63209705608949
 10
40.84763903849251
 20
16.6335970560895
 42
0.2679491924311376
 10
40.8376390384925
 20
16.65091756416519
 10
40.8376390384925
 20
16.8055970560895
 10
40.8476390384925
 20
16.8155970560895
 10
40.8376390384925
 20
16.8255970560895
 10
40.8376390384925
 20
16.9875970560895
 42
0.2459617249876099
 10
40.84763903849251
 20
17.0075970560895
 10
40.84763903849251
 20
17.1215970560895
 42
0.4142135623730951
 10
40.8276390384925
 20
17.1415970560895
 10
40.72798460252458
 20
17.1415970560895
 42
-0.4120800626175069
 10
40.70798513392153
 20
17.16145126309249
 42
0.518385743038754
 10
40.68113739454878
 20
17.18009645696334
 10
40.5686390384925
 20
17.1390970560895
 42
-1.003724381894507
 10
40.5446390384925
 20
17.2045970560895
 10
40.7616390384925
 20
17.2835970560895
 10
40.7616390384925
 20
17.2215970560895
 10
40.84763903849251
 20
17.2215970560895
 10
40.84763903849251
 20
17.3915970560895
 10
40.92763903849251
 20
17.3915970560895
 10
40.9276390384925
 20
16.4891273591198
 10
40.8251390384925
 20
16.4530970560895
 10
40.8251390384925
 20
16.48209705608949
 10
40.7534390384925
 20
16.48209705608949
 42
0.1989123673796526
 10
40.73576136896284
 20
16.47477472561915
 10
40.6691390384925
 20
16.40809705608949
 10
40.6691390384925
 20
16.36614705608949
 42
0.3541185725306792
 10
40.68498080467614
 20
16.34658410407482
 10
40.7871390384925
 20
16.32414705608949
 10
40.8251390384925
 20
16.32414705608949
 10
40.8251390384925
 20
16.35314705608949
 10
40.8371390384925
 20
16.35314705608949
 42
-0.4142135623730951
 10
40.8571390384925
 20
16.33314705608949
 10
40.8571390384925
 20
16.30414705608949
 42
-0.4142135623730951
 10
40.8371390384925
 20
16.28414705608949
 10
40.63514403849249
 20
16.28414705608949
 42
-0.4142135623730951
 10
40.5971390384925
 20
16.32215205608949
 10
40.61913903849251
 20
16.32215205608949
 10
40.61913903849251
 20
16.3640970560895
 42
0.4142135623731471
 10
40.5991390384925
 20
16.3840970560895
 10
40.52763903849249
 20
16.3840970560895
 42
0.4142135623730716
 10
40.4276390384925
 20
16.28409705608949
 10
40.42763903849251
 20
14.9090970560895
 42
0.414213562373069
 10
40.52763903849249
 20
14.80909705608949
 10
40.5991390384925
 20
14.80909705608949
 42
0.4142135623731081
 10
40.61913903849251
 20
14.82909705608949
 10
40.61913903849251
 20
14.8710420560895
 10
40.5971390384925
 20
14.8710420560895
 42
-0.4142135623730951
 10
40.63514403849249
 20
14.9090470560895
 10
40.8371390384925
 20
14.9090470560895
 42
-0.4142135623730951
 10
40.85713903849249
 20
14.8890470560895
 10
40.85713903849249
 20
14.8600470560895
 42
-0.4142135623730951
 10
40.8371390384925
 20
14.8400470560895
 10
40.8251390384925
 20
14.8400470560895
  0
LWPOLYLINE
  5
623B
330
17
100
AcDbEntity
  8
R-SWTS-DET1
100
AcDbPolyline
 90
      148
 70
     1
 43
0.0
 10
40.0076390384925
 20
16.49946068184719
 10
40.0076390384925
 20
16.57597792835476
 42
-0.3242050878081617
 10
40.01796690734495
 20
16.59023174154779
 42
0.8529632016673883
 10
40.01313903849251
 20
16.62046068184719
 10
40.0076390384925
 20
16.62046068184719
 10
40.0076390384925
 20
16.8704606818472
 10
40.01313903849251
 20
16.8704606818472
 42
0.8529632016668454
 10
40.01796690734495
 20
16.90068962214654
 42
-0.3242050878078117
 10
40.0076390384925
 20
16.91494343533951
 10
40.0076390384925
 20
16.9914606818472
 42
-0.4142135623731015
 10
40.0276390384925
 20
17.01146068184719
 10
40.2326390384925
 20
17.01146068184719
 42
-0.4142135623730951
 10
40.2526390384925
 20
16.9914606818472
 10
40.2526390384925
 20
16.9164606818472
 42
-0.4142135623730951
 10
40.2376390384925
 20
16.9014606818472
 10
40.23713903849251
 20
16.9014606818472
 42
0.9999999999999998
 10
40.23713903849251
 20
16.87046068184721
 10
40.3026390384925
 20
16.8704606818472
 10
40.30263903849252
 20
17.01146068184719
 42
0.4142135623731173
 10
40.23263903849251
 20
17.0814606818472
 10
40.0276390384925
 20
17.0814606818472
 42
-0.414213562373108
 10
40.00763903849249
 20
17.1014606818472
 10
40.0076390384925
 20
17.69663143942296
 42
-0.4142135623730906
 10
40.06763903849249
 20
17.75663143942296
 10
40.7876390384925
 20
17.75663143942296
 42
-0.4142135623730897
 10
40.8476390384925
 20
17.69663143942296
 10
40.8476390384925
 20
17.47263235178638
 10
40.8296390384925
 20
17.47263235178638
 42
0.4142135623730951
 10
40.7676390384925
 20
17.41063235178638
 10
40.7676390384925
 20
17.22263235178639
 10
40.7856390384925
 20
17.22263235178639
 42
0.4142135623730951
 10
40.84763903849249
 20
17.28463235178639
 10
40.84763903849249
 20
17.39263235178639
 10
40.9276390384925
 20
17.39263235178639
 10
40.9276390384925
 20
17.84663143942296
 10
38.9276390384925
 20
17.84663143942296
 10
38.9276390384925
 20
17.70161174245326
 10
39.0301390384925
 20
17.66558143942295
 10
39.0301390384925
 20
17.69458143942295
 10
39.10391131930007
 20
17.69458143942295
 42
-0.1990202627215749
 10
39.118059324766
 20
17.68871770276713
 10
39.1861390384925
 20
17.62058143942295
 10
39.1861390384925
 20
17.57863190703665
 42
-0.3522182948120313
 10
39.1704293862224
 20
17.55909750363249
 10
39.06813903849251
 20
17.53663143942295
 10
39.0301390384925
 20
17.53663143942295
 10
39.0301390384925
 20
17.56563143942295
 10
39.0181390384925
 20
17.56563143942295
 42
0.4142135623730951
 10
38.99813903849249
 20
17.54563143942295
 10
38.99813903849249
 20
17.51663143942295
 42
0.4142135623730951
 10
39.0181390384925
 20
17.49663143942295
 10
39.22013403849251
 20
17.49663143942295
 42
0.4142135623730882
 10
39.2581390384925
 20
17.53463643942295
 10
39.2361390384925
 20
17.53463643942295
 10
39.2361390384925
 20
17.59663643942295
 10
39.2581390384925
 20
17.59663643942295
 10
39.2581390384925
 20
17.65348344519478
 42
0.198901884618123
 10
39.25228174453091
 20
17.66762501038083
 10
39.1974213064692
 20
17.72248987423691
 42
-0.6681640521692715
 10
39.2115640125076
 20
17.75663143942296
 10
39.8676390384925
 20
17.75663143942296
 42
-0.4142135623730928
 10
39.9276390384925
 20
17.69663143942296
 10
39.9276390384925
 20
16.88046068184719
 10
39.93763903849251
 20
16.87046068184719
 10
39.9276390384925
 20
16.86046068184719
 10
39.9276390384925
 20
16.63046068184719
 10
39.93763903849251
 20
16.62046068184719
 10
39.9276390384925
 20
16.61046068184719
 10
39.92763903849251
 20
16.12062643942296
 42
-0.4142135623730977
 10
39.82763903849251
 20
16.02062643942296
 10
39.2611390384925
 20
16.02062643942296
 42
-0.4142135623730951
 10
39.2361390384925
 20
16.04562643942296
 10
39.2361390384925
 20
16.08262643942296
 10
39.2581390384925
 20
16.08262643942296
 42
0.4142135623730951
 10
39.22013403849251
 20
16.12063143942296
 10
39.0181390384925
 20
16.12063143942296
 42
0.4142135623730951
 10
38.99813903849249
 20
16.10063143942296
 10
38.99813903849249
 20
16.07163143942296
 42
0.4142135623730951
 10
39.0181390384925
 20
16.05163143942296
 10
39.0301390384925
 20
16.05163143942296
 10
39.0301390384925
 20
16.08063143942296
 10
39.06813903849251
 20
16.08063143942296
 10
39.17029727230886
 20
16.05819439143764
 42
-0.3541185725306697
 10
39.1861390384925
 20
16.03863143942296
 10
39.1861390384925
 20
15.99668143942296
 10
39.11951670802216
 20
15.9300037698933
 42
-0.198912367379654
 10
39.1018390384925
 20
15.92268143942296
 10
39.0301390384925
 20
15.92268143942296
 10
39.0301390384925
 20
15.95168143942296
 10
38.9276390384925
 20
15.91565113639266
 10
38.9276390384925
 20
13.34663143942296
 10
40.9276390384925
 20
13.34663143942296
 10
40.9276390384925
 20
13.80063235178639
 10
40.8476390384925
 20
13.80063235178639
 10
40.84763903849249
 20
13.90863235178639
 42
0.4142135623730951
 10
40.7856390384925
 20
13.9706323517864
 10
40.7676390384925
 20
13.97063235178639
 10
40.7676390384925
 20
13.78263235178639
 42
0.4142135623730951
 10
40.8296390384925
 20
13.72063235178639
 10
40.8476390384925
 20
13.7206323517864
 10
40.8476390384925
 20
13.49663143942296
 42
-0.414213562373094
 10
40.7876390384925
 20
13.43663143942296
 10
39.06763903849249
 20
13.43663143942296
 42
-0.4142135623730951
 10
39.00763903849249
 20
13.49663143942296
 10
39.00763903849251
 20
14.21440160196218
 42
-0.5680984128595057
 10
39.03715255200602
 20
14.2319940168228
 42
0.3397540095737747
 10
39.2356390384925
 20
14.26388392289387
 10
39.23563903849251
 20
14.30784940712019
 10
39.20615837344368
 20
14.32487007702202
 42
0.3865446749097419
 10
39.19301367487689
 20
14.32201188169264
 42
-3.127286275187389
 10
39.1930136748769
 20
14.43225099715326
 42
0.3865446749096575
 10
39.20615837344368
 20
14.42939280182387
 10
39.23563903849251
 20
14.4464134717257
 10
39.2356390384925
 20
14.49037895595201
 42
0.3397540095737754
 10
39.03715255200603
 20
14.52226886202307
 42
-0.5680984128594928
 10
39.00763903849251
 20
14.53986127688371
 10
39.00763903849251
 20
15.14540160196218
 42
-0.5680984128595057
 10
39.03715255200602
 20
15.1629940168228
 42
0.3397540095737747
 10
39.2356390384925
 20
15.19488392289388
 10
39.23563903849251
 20
15.23884940712019
 10
39.20615837344368
 20
15.25587007702202
 42
0.3865446749097419
 10
39.19301367487689
 20
15.25301188169264
 42
-3.127286275187389
 10
39.1930136748769
 20
15.36325099715326
 42
0.3865446749096575
 10
39.20615837344368
 20
15.36039280182387
 10
39.23563903849251
 20
15.3774134717257
 10
39.2356390384925
 20
15.42137895595201
 42
0.3397540095737754
 10
39.03715255200603
 20
15.45326886202308
 42
-0.5680984128594928
 10
39.00763903849251
 20
15.47086127688371
 10
39.0076390384925
 20
15.77268143942296
 42
-0.4142135623730951
 10
39.0776390384925
 20
15.84268143942296
 10
39.10769446774109
 20
15.84268143942296
 42
0.1990202627215673
 10
39.18197149643723
 20
15.87346605686602
 10
39.24321726925373
 20
15.93476270276714
 42
-0.1990202627215632
 10
39.25736527471966
 20
15.94062643942296
 10
39.83763903849251
 20
15.94062643942296
 42
0.4142135623730935
 10
40.0076390384925
 20
16.11062643942296
 10
40.0076390384925
 20
16.38946068184719
 42
-0.4142135623731081
 10
40.02763903849251
 20
16.40946068184719
 10
40.23263903849251
 20
16.40946068184719
 42
0.4142135623731173
 10
40.30263903849252
 20
16.4794606818472
 10
40.3026390384925
 20
16.62046068184718
 10
40.23713903849251
 20
16.62046068184718
 42
0.9999999999999998
 10
40.23713903849251
 20
16.58946068184719
 10
40.2376390384925
 20
16.58946068184719
 42
-0.4142135623730951
 10
40.2526390384925
 20
16.57446068184719
 10
40.2526390384925
 20
16.49946068184719
 42
-0.4142135623731015
 10
40.2326390384925
 20
16.47946068184719
 10
40.02763903849251
 20
16.47946068184718
 42
-0.4142135623730951
  0
LINE
  5
623C
330
17
100
AcDbEntity
  8
R-SWTS-DET3
100
AcDbLine
 10
39.3026390384925
 20
17.3081898268881
 30
0.0
 11
36.92763903849249
 21
17.3081898268881
 31
0.0
  0
LINE
  5
623D
330
17
100
AcDbEntity
  8
R-SWTS-DET3
100
AcDbLine
 10
39.3026390384925
 20
17.0581898268881
 30
0.0
 11
36.92763903849249
 21
17.0581898268881
 31
0.0
  0
LINE
  5
623E
330
17
100
AcDbEntity
  8
R-SWTS-DET3
100
AcDbLine
 10
39.3026390384925
 20
16.5581898268881
 30
0.0
 11
36.92763903849249
 21
16.5581898268881
 31
0.0
  0
LINE
  5
623F
330
17
100
AcDbEntity
  8
R-SWTS-DET3
100
AcDbLine
 10
39.3026390384925
 20
16.3081898268881
 30
0.0
 11
36.92763903849249
 21
16.3081898268881
 31
0.0
  0
LINE
  5
6240
330
17
100
AcDbEntity
  8
R-SWTS-DET2
100
AcDbLine
 10
38.9276390384925
 20
17.82549354134294
 30
0.0
 11
36.92763903849249
 21
17.82549354134294
 31
0.0
  0
LINE
  5
6241
330
17
100
AcDbEntity
  8
R-SWTS-DET2
100
AcDbLine
 10
38.9276390384925
 20
15.79088611243326
 30
0.0
 11
36.92763903849249
 21
15.79088611243326
 31
0.0
  0
LINE
  5
6242
330
17
100
AcDbEntity
  8
R-SWTS-DET3
100
AcDbLine
 10
39.3026390384925
 20
17.3081898268881
 30
0.0
 11
39.3026390384925
 21
16.3081898268881
 31
0.0
  0
LINE
  5
6243
330
17
100
AcDbEntity
  8
R-SWTS-DET3
100
AcDbLine
 10
39.05263903849249
 20
17.0581898268881
 30
0.0
 11
39.05263903849249
 21
16.5581898268881
 31
0.0
  0
LINE
  5
6244
330
17
100
AcDbEntity
  8
R-SWTS-DET3
100
AcDbLine
 10
40.55263903849252
 20
16.09660544355464
 30
0.0
 11
42.92763903849252
 21
16.09660544355464
 31
0.0
  0
LINE
  5
6245
330
17
100
AcDbEntity
  8
R-SWTS-DET3
100
AcDbLine
 10
40.55263903849252
 20
15.84660544355464
 30
0.0
 11
42.92763903849252
 21
15.84660544355464
 31
0.0
  0
LINE
  5
6246
330
17
100
AcDbEntity
  8
R-SWTS-DET3
100
AcDbLine
 10
40.55263903849252
 20
15.34660544355464
 30
0.0
 11
42.92763903849252
 21
15.34660544355464
 31
0.0
  0
LINE
  5
6247
330
17
100
AcDbEntity
  8
R-SWTS-DET3
100
AcDbLine
 10
40.55263903849252
 20
15.09660544355464
 30
0.0
 11
42.92763903849252
 21
15.09660544355464
 31
0.0
  0
LINE
  5
6248
330
17
100
AcDbEntity
  8
R-SWTS-DET2
100
AcDbLine
 10
40.92763903849252
 20
16.61390915800948
 30
0.0
 11
42.92763903849253
 21
16.61390915800948
 31
0.0
  0
LINE
  5
6249
330
17
100
AcDbEntity
  8
R-SWTS-DET2
100
AcDbLine
 10
40.92763903849252
 20
14.5793017290998
 30
0.0
 11
42.92763903849253
 21
14.5793017290998
 31
0.0
  0
LINE
  5
624A
330
17
100
AcDbEntity
  8
R-SWTS-DET3
100
AcDbLine
 10
40.55263903849252
 20
16.09660544355464
 30
0.0
 11
40.55263903849252
 21
15.09660544355464
 31
0.0
  0
LINE
  5
624B
330
17
100
AcDbEntity
  8
R-SWTS-DET3
100
AcDbLine
 10
40.80263903849252
 20
15.84660544355464
 30
0.0
 11
40.80263903849252
 21
15.34660544355464
 31
0.0
  0
LWPOLYLINE
  5
624C
330
17
100
AcDbEntity
  8
R-SWTS-DET2
100
AcDbPolyline
 90
       31
 70
     1
 43
0.0
 10
40.81363701032807
 20
16.47009403940844
 10
40.81851131092604
 20
16.4432775128695
 10
40.92574590860778
 20
16.47740763699063
 10
40.93062020748647
 20
16.5383542876507
 10
40.92763903849252
 20
16.61390915800948
 10
40.95864858111376
 20
16.60381861645117
 42
-0.1257100272134179
 10
41.01039090870741
 20
16.37182721442911
 42
0.2260837189018228
 10
41.06010876735151
 20
16.2182416539975
 10
41.17104938551187
 20
16.12268634433781
 42
-0.6449762263124317
 10
41.15930804303821
 20
16.09675205231963
 10
41.03007110740882
 20
16.09833178934768
 42
-0.1518691569180708
 10
40.98563595305956
 20
16.11468456594401
 10
40.92571017379109
 20
16.15318775423926
 42
0.0293454671788447
 10
40.87382753059847
 20
16.17058264344216
 10
40.75203352076142
 20
16.18781293302569
 42
0.6538117075652882
 10
40.74504678379606
 20
16.16757212212283
 10
40.91029570128598
 20
16.1234803749005
 42
-0.8886355728344963
 10
40.90823427038659
 20
16.09833178934768
 10
40.77398864999394
 20
16.09833178934768
 42
-0.0642046489364144
 10
40.58537239328665
 20
16.14076425125711
 42
-0.6896355001773956
 10
40.58537239328664
 20
16.24337298164521
 42
-0.0703560868358924
 10
40.77398864999394
 20
16.28460544355464
 10
40.86969146032757
 20
16.28460544355464
 10
40.86969146032757
 20
16.35795220153123
 10
40.81607416062705
 20
16.3798929963487
 10
40.81119986174837
 20
16.34088713843522
 10
40.77464261242146
 20
16.37501726462723
 10
40.75270826316916
 20
16.34332500429595
 10
40.69909096518792
 20
16.4042716570269
 10
40.76489401294479
 20
16.46034257596551
 10
40.77464261242146
 20
16.43596391528731
  0
LWPOLYLINE
  5
624D
330
17
100
AcDbEntity
  8
R-SWTS-DET2
100
AcDbPolyline
 90
       31
 70
     1
 43
0.0
 10
40.81363701032807
 20
14.72311684770085
 10
40.81851131092604
 20
14.74993337423978
 10
40.92574590860778
 20
14.71580325011865
 10
40.93062020748647
 20
14.65485659945858
 10
40.92763903849252
 20
14.5793017290998
 10
40.95864858111376
 20
14.58939227065811
 42
0.1257100272134179
 10
41.01039090870741
 20
14.82138367268017
 42
-0.2260837189018228
 10
41.06010876735151
 20
14.97496923311178
 10
41.17104938551187
 20
15.07052454277147
 42
0.6449762263124317
 10
41.15930804303821
 20
15.09645883478965
 10
41.03007110740882
 20
15.0948790977616
 42
0.1518691569180708
 10
40.98563595305956
 20
15.07852632116527
 10
40.92571017379109
 20
15.04002313287002
 42
-0.0293454671788447
 10
40.87382753059847
 20
15.02262824366712
 10
40.75203352076142
 20
15.0053979540836
 42
-0.6538117075652882
 10
40.74504678379605
 20
15.02563876498645
 10
40.91029570128598
 20
15.06973051220878
 42
0.8886355728344963
 10
40.90823427038659
 20
15.0948790977616
 10
40.77398864999394
 20
15.0948790977616
 42
0.0642046489364144
 10
40.58537239328665
 20
15.05244663585218
 42
0.6896355001773956
 10
40.58537239328664
 20
14.94983790546407
 42
0.0703560868358924
 10
40.77398864999394
 20
14.90860544355464
 10
40.86969146032757
 20
14.90860544355464
 10
40.86969146032757
 20
14.83525868557805
 10
40.81607416062705
 20
14.81331789076058
 10
40.81119986174836
 20
14.85232374867406
 10
40.77464261242146
 20
14.81819362248205
 10
40.75270826316915
 20
14.84988588281333
 10
40.69909096518792
 20
14.78893923008238
 10
40.76489401294479
 20
14.73286831114377
 10
40.77464261242146
 20
14.75724697182198
  0
LWPOLYLINE
  5
624E
330
17
100
AcDbEntity
  8
R-SWTS-DET2
100
AcDbPolyline
 90
       31
 70
     1
 43
0.0
 10
39.04164106665695
 20
17.6816784227419
 10
39.03676676605897
 20
17.65486189620296
 10
38.92953216837723
 20
17.68899202032409
 10
38.92465786949854
 20
17.74993867098416
 10
38.9276390384925
 20
17.82549354134294
 10
38.89662949587125
 20
17.81540299978463
 42
0.1257100272134179
 10
38.8448871682776
 20
17.58341159776257
 42
-0.2260837189018228
 10
38.7951693096335
 20
17.42982603733097
 10
38.68422869147315
 20
17.33427072767127
 42
0.6449762263124317
 10
38.69597003394681
 20
17.30833643565309
 10
38.8252069695762
 20
17.30991617268114
 42
0.1518691569180708
 10
38.86964212392545
 20
17.32626894927747
 10
38.92956790319393
 20
17.36477213757272
 42
-0.0293454671788447
 10
38.98145054638655
 20
17.38216702677562
 10
39.1032445562236
 20
17.39939731635915
 42
-0.6538117075652882
 10
39.11023129318896
 20
17.37915650545629
 10
38.94498237569904
 20
17.33506475823396
 42
0.8886355728344963
 10
38.94704380659842
 20
17.30991617268114
 10
39.08128942699109
 20
17.30991617268114
 42
0.0642046489364144
 10
39.26990568369836
 20
17.35234863459057
 42
0.6896355001773956
 10
39.26990568369837
 20
17.45495736497868
 42
0.0703560868358924
 10
39.08128942699109
 20
17.4961898268881
 10
38.98558661665745
 20
17.4961898268881
 10
38.98558661665745
 20
17.56953658486469
 10
39.03920391635796
 20
17.59147737968216
 10
39.04407821523665
 20
17.55247152176868
 10
39.08063546456356
 20
17.5866016479607
 10
39.10256981381586
 20
17.55490938762942
 10
39.15618711179709
 20
17.61585604036036
 10
39.09038406404022
 20
17.67192695929897
 10
39.08063546456356
 20
17.64754829862076
  0
LWPOLYLINE
  5
624F
330
17
100
AcDbEntity
  8
R-SWTS-DET2
100
AcDbPolyline
 90
       31
 70
     1
 43
0.0
 10
39.04164106665695
 20
15.93470123103431
 10
39.03676676605898
 20
15.96151775757324
 10
38.92953216837723
 20
15.92738763345211
 10
38.92465786949854
 20
15.86644098279204
 10
38.9276390384925
 20
15.79088611243326
 10
38.89662949587125
 20
15.80097665399158
 42
-0.1257100272134179
 10
38.8448871682776
 20
16.03296805601363
 42
0.2260837189018228
 10
38.7951693096335
 20
16.18655361644524
 10
38.68422869147315
 20
16.28210892610493
 42
-0.6449762263124317
 10
38.69597003394681
 20
16.30804321812312
 10
38.8252069695762
 20
16.30646348109506
 42
-0.1518691569180708
 10
38.86964212392545
 20
16.29011070449873
 10
38.92956790319393
 20
16.25160751620348
 42
0.0293454671788447
 10
38.98145054638655
 20
16.23421262700058
 10
39.1032445562236
 20
16.21698233741706
 42
0.6538117075652882
 10
39.11023129318896
 20
16.23722314831991
 10
38.94498237569904
 20
16.28131489554224
 42
-0.8886355728344963
 10
38.94704380659842
 20
16.30646348109506
 10
39.08128942699109
 20
16.30646348109506
 42
-0.0642046489364144
 10
39.26990568369837
 20
16.26403101918564
 42
-0.6896355001773956
 10
39.26990568369837
 20
16.16142228879753
 42
-0.0703560868358924
 10
39.08128942699109
 20
16.1201898268881
 10
38.98558661665745
 20
16.1201898268881
 10
38.98558661665745
 20
16.04684306891152
 10
39.03920391635796
 20
16.02490227409404
 10
39.04407821523665
 20
16.06390813200752
 10
39.08063546456356
 20
16.02977800581551
 10
39.10256981381586
 20
16.06147026614679
 10
39.15618711179709
 20
16.00052361341584
 10
39.09038406404022
 20
15.94445269447724
 10
39.08063546456356
 20
15.96883135515544
  0
LINE
  5
6250
330
17
100
AcDbEntity
  8
R-ANNO-DIMS
100
AcDbLine
 10
40.92763903849251
 20
12.97848819790886
 30
0.0
 11
40.92763903849251
 21
11.42348819790886
 31
0.0
  0
LINE
  5
6251
330
17
100
AcDbEntity
  8
R-ANNO-DIMS
100
AcDbLine
 10
41.1776390384925
 20
11.60348819790886
 30
0.0
 11
42.67764903849251
 21
11.60348819790886
 31
0.0
  0
SOLID
  5
6252
330
17
100
AcDbEntity
  8
R-ANNO-DIMS
100
AcDbTrace
 10
41.1776390384925
 20
11.64515486457553
 30
0.0
 11
41.1776390384925
 21
11.56182153124219
 31
0.0
 12
40.92763903849251
 22
11.60348819790886
 32
0.0
 13
40.92763903849251
 23
11.60348819790886
 33
0.0
  0
SOLID
  5
6253
330
17
100
AcDbEntity
  8
R-ANNO-DIMS
100
AcDbTrace
 10
42.67764903849251
 20
11.64515486457553
 30
0.0
 11
42.67764903849251
 21
11.56182153124219
 31
0.0
 12
42.92764903849251
 22
11.60348819790886
 32
0.0
 13
42.92764903849251
 23
11.60348819790886
 33
0.0
  0
MTEXT
  5
6254
330
17
100
AcDbEntity
  8
R-ANNO-DIMS
100
AcDbMText
 10
41.92764403849251
 20
11.82848819790886
 30
0.0
 40
0.25
 41
0.0
 71
     5
 72
     1
  1
\A1;DLO
 73
     1
 44
1.0
1001
ACAD
1000
MTEXTBEGIN
1070
    73
1070
     1
1070
    44
1040
1.0
1070
    74
1070
     0
1000
MTEXTEND
  0
LINE
  5
6255
330
17
100
AcDbEntity
  8
R-ANNO-DIMS
100
AcDbLine
 10
38.9276390384925
 20
12.97163143942296
 30
0.0
 11
38.9276390384925
 21
11.42348819790886
 31
0.0
  0
LINE
  5
6256
330
17
100
AcDbEntity
  8
R-ANNO-DIMS
100
AcDbLine
 10
38.6776390384925
 20
11.60348819790886
 30
0.0
 11
37.1776290384925
 21
11.60348819790886
 31
0.0
  0
SOLID
  5
6257
330
17
100
AcDbEntity
  8
R-ANNO-DIMS
100
AcDbTrace
 10
38.6776390384925
 20
11.64515486457553
 30
0.0
 11
38.6776390384925
 21
11.56182153124219
 31
0.0
 12
38.9276390384925
 22
11.60348819790886
 32
0.0
 13
38.9276390384925
 23
11.60348819790886
 33
0.0
  0
SOLID
  5
6258
330
17
100
AcDbEntity
  8
R-ANNO-DIMS
100
AcDbTrace
 10
37.1776290384925
 20
11.64515486457553
 30
0.0
 11
37.1776290384925
 21
11.56182153124219
 31
0.0
 12
36.9276290384925
 22
11.60348819790886
 32
0.0
 13
36.9276290384925
 23
11.60348819790886
 33
0.0
  0
MTEXT
  5
6259
330
17
100
AcDbEntity
  8
R-ANNO-DIMS
100
AcDbMText
 10
37.9276340384925
 20
11.82848819790886
 30
0.0
 40
0.25
 41
0.0
 71
     5
 72
     1
  1
\A1;DLO
 73
     1
 44
1.0
1001
ACAD
1000
MTEXTBEGIN
1070
    73
1070
     1
1070
    44
1040
1.0
1070
    74
1070
     0
1000
MTEXTEND
  0
LINE
  5
625A
330
17
100
AcDbEntity
  8
R-ANNO-DIMS
100
AcDbLine
 10
38.92763903849251
 20
12.97848819790886
 30
0.0
 11
38.92763903849251
 21
11.42348819790886
 31
0.0
  0
LINE
  5
625B
330
17
100
AcDbEntity
  8
R-ANNO-DIMS
100
AcDbLine
 10
40.92763903849251
 20
12.97848819790886
 30
0.0
 11
40.92763903849251
 21
11.42348819790886
 31
0.0
  0
LINE
  5
625C
330
17
100
AcDbEntity
  8
R-ANNO-DIMS
100
AcDbLine
 10
39.17763903849251
 20
11.60348819790886
 30
0.0
 11
40.6776390384925
 21
11.60348819790886
 31
0.0
  0
SOLID
  5
625D
330
17
100
AcDbEntity
  8
R-ANNO-DIMS
100
AcDbTrace
 10
39.17763903849251
 20
11.64515486457553
 30
0.0
 11
39.17763903849251
 21
11.56182153124219
 31
0.0
 12
38.92763903849251
 22
11.60348819790886
 32
0.0
 13
38.92763903849251
 23
11.60348819790886
 33
0.0
  0
SOLID
  5
625E
330
17
100
AcDbEntity
  8
R-ANNO-DIMS
100
AcDbTrace
 10
40.6776390384925
 20
11.64515486457553
 30
0.0
 11
40.6776390384925
 21
11.56182153124219
 31
0.0
 12
40.92763903849251
 22
11.60348819790886
 32
0.0
 13
40.92763903849251
 23
11.60348819790886
 33
0.0
  0
MTEXT
  5
625F
330
17
100
AcDbEntity
  8
R-ANNO-DIMS
100
AcDbMText
 10
39.92763903849251
 20
11.82848819790886
 30
0.0
 40
0.25
 41
0.0
 71
     5
 72
     1
  1
\A1;2"
 73
     1
 44
1.0
1001
ACAD
1000
MTEXTBEGIN
1070
    73
1070
     1
1070
    44
1040
1.0
1070
    74
1070
     0
1000
MTEXTEND
  0
MTEXT
  5
63D7
102
{ACAD_XDICTIONARY
360
63D8
102
}
330
17
100
AcDbEntity
  8
TEXT
100
AcDbMText
 10
1.000000084398437
 20
2.0
 30
0.0
 40
0.375
 41
15.4571868900598
 71
     1
 72
     5
  1
ENGINEERING CHANGE:  97910-095 (MARCH 2017)\PFILE NAME:  KCDC041D.DWG
 73
     1
 44
1.0
1001
ACAD
1000
ACAD_MTEXT_COLUMN_INFO_BEGIN
1070
    75
1070
     2
1070
    79
1070
     0
1070
    76
1070
     1
1070
    78
1070
     0
1070
    48
1040
15.4571868900598
1070
    49
1040
1.25
1070
    50
1070
     1
1040
0.0
1000
ACAD_MTEXT_COLUMN_INFO_END
1000
MTEXTBEGIN
1070
    73
1070
     1
1070
    44
1040
1.0
1070
    74
1070
     0
1000
MTEXTEND
  0
INSERT
  5
697B
330
17
100
AcDbEntity
  8
0
100
AcDbBlockReference
  2
Kawneer Logo English
 10
1.0
 20
2.5
 30
0.0
 41
5.337
 42
5.337
 43
5.337
  0
ENDSEC
  0
SECTION
  2
OBJECTS
  0
DICTIONARY
  5
C
330
0
100
AcDbDictionary
281
     1
  3
ACAD_CIP_PREVIOUS_PRODUCT_INFO
350
63B1
  3
ACAD_COLOR
350
6317
  3
ACAD_FIELDLIST
350
63D5
  3
ACAD_GROUP
350
D
  3
ACAD_LAYOUT
350
485C
  3
ACAD_MATERIAL
350
62E5
  3
ACAD_MLEADERSTYLE
350
632C
  3
ACAD_MLINESTYLE
350
1A
  3
ACAD_PLOTSETTINGS
350
485D
  3
ACAD_PLOTSTYLENAME
350
485A
  3
ACAD_SCALELIST
350
631A
  3
ACAD_TABLESTYLE
350
6318
  3
ACAD_VISUALSTYLE
350
62FE
  3
ACDB_RECOMPOSE_DATA
350
69D8
  3
ACDBVARIABLEDICTIONARY
350
3E
  3
DWGPROPS
350
69D9
  0
DICTIONARY
  5
636C
330
8
100
AcDbDictionary
280
     1
281
     1
  0
DICTIONARY
  5
634B
330
2
100
AcDbDictionary
280
     1
281
     1
  3
ACAD_LAYERSTATES
360
634C
  0
DICTIONARY
  5
635B
330
E
100
AcDbDictionary
280
     1
281
     1
  3
ADSK_XREC_LAYER_RECONCILED
360
635C
  0
DICTIONARY
  5
635D
330
6019
100
AcDbDictionary
280
     1
281
     1
  3
ADSK_XREC_LAYER_RECONCILED
360
635E
  0
DICTIONARY
  5
635F
330
601A
100
AcDbDictionary
280
     1
281
     1
  3
ADSK_XREC_LAYER_RECONCILED
360
6360
  0
DICTIONARY
  5
6361
330
601B
100
AcDbDictionary
280
     1
281
     1
  3
ADSK_XREC_LAYER_RECONCILED
360
6362
  0
DICTIONARY
  5
6363
330
601C
100
AcDbDictionary
280
     1
281
     1
  3
ADSK_XREC_LAYER_RECONCILED
360
6364
  0
DICTIONARY
  5
6365
330
601D
100
AcDbDictionary
280
     1
281
     1
  3
ADSK_XREC_LAYER_RECONCILED
360
6366
  0
DICTIONARY
  5
63C6
330
63C5
100
AcDbDictionary
280
     1
281
     1
  0
DICTIONARY
  5
4A11
330
17
100
AcDbDictionary
280
     1
281
     1
  3
ACAD_LAYOUTSELFREF
360
62E1
  0
DICTIONARY
  5
4A0F
330
14
100
AcDbDictionary
280
     1
281
     1
  3
ACAD_LAYOUTSELFREF
360
62E0
  0
DICTIONARY
  5
6977
330
696D
100
AcDbDictionary
280
     1
281
     1
  3
ACAD_SORTENTS
360
6978
  0
DICTIONARY
  5
69D6
330
696E
100
AcDbDictionary
280
     1
281
     1
  3
ACAD_MTEXT_2008_RT
360
69D7
  0
DICTIONARY
  5
63D8
330
63D7
100
AcDbDictionary
280
     1
281
     1
  0
XRECORD
  5
63B1
102
{ACAD_REACTORS
330
C
102
}
330
C
100
AcDbXrecord
280
     1
300
ACD
300
2012
300
85730ACD_2012_0F
  0
DICTIONARY
  5
6317
102
{ACAD_REACTORS
330
C
102
}
330
C
100
AcDbDictionary
281
     1
  0
FIELDLIST
  5
63D5
102
{ACAD_REACTORS
330
C
102
}
330
C
100
AcDbIdSet
 90
        0
100
AcDbFieldList
  0
DICTIONARY
  5
D
102
{ACAD_REACTORS
330
C
102
}
330
C
100
AcDbDictionary
281
     1
  0
DICTIONARY
  5
485C
102
{ACAD_REACTORS
330
C
102
}
330
C
100
AcDbDictionary
281
     1
  3
Layout1
350
485F
  3
Model
350
485E
  0
DICTIONARY
  5
62E5
102
{ACAD_REACTORS
330
C
102
}
330
C
100
AcDbDictionary
281
     1
  3
ByBlock
350
62EE
  3
ByLayer
350
62E6
  3
Global
350
62F6
  0
DICTIONARY
  5
632C
102
{ACAD_REACTORS
330
C
102
}
330
C
100
AcDbDictionary
281
     1
  3
Standard
350
632D
  0
DICTIONARY
  5
1A
102
{ACAD_REACTORS
330
C
102
}
330
C
100
AcDbDictionary
281
     1
  3
STANDARD
350
1B
  0
DICTIONARY
  5
485D
102
{ACAD_REACTORS
330
C
102
}
330
C
100
AcDbDictionary
281
     1
  0
ACDBDICTIONARYWDFLT
  5
485A
102
{ACAD_REACTORS
330
C
102
}
330
C
100
AcDbDictionary
281
     1
  3
Normal
350
485B
100
AcDbDictionaryWithDefault
340
485B
  0
DICTIONARY
  5
631A
102
{ACAD_REACTORS
330
C
102
}
330
C
100
AcDbDictionary
281
     1
  3
A0
350
631B
  3
A1
350
694B
  3
A2
350
694C
  3
A3
350
694D
  3
A4
350
694E
  3
A5
350
694F
  3
A6
350
6950
  3
A7
350
6951
  3
A8
350
6952
  3
A9
350
6953
  3
B0
350
6954
  3
B1
350
6955
  3
B2
350
6956
  3
B3
350
6957
  3
B4
350
6958
  3
B5
350
6959
  3
B6
350
695A
  0
DICTIONARY
  5
6318
102
{ACAD_REACTORS
330
C
102
}
330
C
100
AcDbDictionary
281
     1
  3
Standard
350
6319
  0
DICTIONARY
  5
62FE
102
{ACAD_REACTORS
330
C
102
}
330
C
100
AcDbDictionary
281
     1
  3
2dWireframe
350
6304
  3
3D Hidden
350
696B
  3
3dWireframe
350
696C
  3
Basic
350
6303
  3
Brighten
350
630A
  3
ColorChange
350
630E
  3
Conceptual
350
6307
  3
Dim
350
6309
  3
EdgeColorOff
350
6316
  3
Facepattern
350
630D
  3
Flat
350
62FF
  3
FlatWithEdges
350
6300
  3
Gouraud
350
6301
  3
GouraudWithEdges
350
6302
  3
Hidden
350
6306
  3
JitterOff
350
6314
  3
Linepattern
350
630C
  3
OverhangOff
350
6315
  3
Realistic
350
6308
  3
Shaded
350
6313
  3
Shaded with edges
350
6312
  3
Shades of Gray
350
630F
  3
Sketchy
350
6310
  3
Thicken
350
630B
  3
Wireframe
350
6305
  3
X-Ray
350
6311
  0
XRECORD
  5
69D8
102
{ACAD_REACTORS
330
C
102
}
330
C
100
AcDbXrecord
280
     1
 90
        1
330
6319
330
63D7
330
696E
  0
DICTIONARY
  5
3E
102
{ACAD_REACTORS
330
C
102
}
330
C
100
AcDbDictionary
281
     1
  3
CANNOSCALE
350
63A9
  3
CMLEADERSTYLE
350
63A8
  3
CTABLESTYLE
350
63A7
  3
DIMADEC
350
3F
  3
DIMASSOC
350
63AC
  3
INDEXCTL
350
63AB
  3
LAYEREVAL
350
69C8
  3
LAYERNOTIFY
350
69C9
  3
LIGHTINGUNITS
350
69C7
  3
MSLTSCALE
350
69C6
  3
SORTENTS
350
63AA
  3
XCLIPFRAME
350
69D4
  0
XRECORD
  5
69D9
102
{ACAD_REACTORS
330
C
102
}
330
C
100
AcDbXrecord
280
     1
  1
DWGPROPS COOKIE
  2

  3

  4

  6

  7

  8
quadiss
  9

300
=
301
=
302
=
303
=
304
=
305
=
306
=
307
=
308
=
309
=
 40
0.5356180092592594
 41
2450777.537570949
 42
2457809.450916424
  1

 90
        0
  0
DICTIONARY
  5
634C
102
{ACAD_REACTORS
330
634B
102
}
330
634B
100
AcDbDictionary
281
     1
  0
XRECORD
  5
635C
102
{ACAD_REACTORS
330
635B
102
}
330
635B
100
AcDbXrecord
280
     1
290
     1
  0
XRECORD
  5
635E
102
{ACAD_REACTORS
330
635D
102
}
330
635D
100
AcDbXrecord
280
     1
290
     1
  0
XRECORD
  5
6360
102
{ACAD_REACTORS
330
635F
102
}
330
635F
100
AcDbXrecord
280
     1
290
     1
  0
XRECORD
  5
6362
102
{ACAD_REACTORS
330
6361
102
}
330
6361
100
AcDbXrecord
280
     1
290
     1
  0
XRECORD
  5
6364
102
{ACAD_REACTORS
330
6363
102
}
330
6363
100
AcDbXrecord
280
     1
290
     1
  0
XRECORD
  5
6366
102
{ACAD_REACTORS
330
6365
102
}
330
6365
100
AcDbXrecord
280
     1
290
     1
  0
XRECORD
  5
62E1
102
{ACAD_REACTORS
330
4A11
102
}
330
4A11
100
AcDbXrecord
280
     1
340
17
  0
XRECORD
  5
62E0
102
{ACAD_REACTORS
330
4A0F
102
}
330
4A0F
100
AcDbXrecord
280
     1
340
14
  0
SORTENTSTABLE
  5
6978
102
{ACAD_REACTORS
330
6977
102
}
330
6977
100
AcDbSortentsTable
330
696D
  0
XRECORD
  5
69D7
102
{ACAD_REACTORS
330
69D6
102
}
330
69D6
100
AcDbXrecord
280
     1
 40
102645.0
  1
\pxqr;{\fArial TUR|b0|i0|c0|p34;\T1.05;AN ARCONIC COMPANY}
  0
LAYOUT
  5
485F
102
{ACAD_XDICTIONARY
360
69DC
102
}
102
{ACAD_REACTORS
330
485C
102
}
330
485C
100
AcDbPlotSettings
  1

  2
\\NOAKCI-SRV7\Marketing Communications - HP4550hdn
  4

  6

 40
0.0
 41
0.0
 42
0.0
 43
0.0
 44
0.0
 45
0.0
 46
0.0
 47
0.0
 48
0.0
 49
0.0
140
0.0
141
0.0
142
1.0
143
1.0
 70
   688
 72
     0
 73
     0
 74
     5
  7
monochrome.ctb
 75
    16
147
1.0
148
0.0
149
0.0
100
AcDbLayout
  1
Layout1
 70
     1
 71
     1
 10
0.0
 20
0.0
 11
12.0
 21
9.0
 12
0.0
 22
0.0
 32
0.0
 14
1.000000000000000E+20
 24
1.000000000000000E+20
 34
1.000000000000000E+20
 15
-1.000000000000000E+20
 25
-1.000000000000000E+20
 35
-1.000000000000000E+20
146
0.0
 13
0.0
 23
0.0
 33
0.0
 16
1.0
 26
0.0
 36
0.0
 17
0.0
 27
1.0
 37
0.0
 76
     0
330
14
  0
LAYOUT
  5
485E
102
{ACAD_XDICTIONARY
360
69DA
102
}
102
{ACAD_REACTORS
330
485C
102
}
330
485C
100
AcDbPlotSettings
  1

  2
\\noakci-hub01\KCI_MKT_HP9000_PCL6
  4
11x17
  6

 40
3.174999952316284
 41
3.174999952316284
 42
3.17498779296875
 43
3.17498779296875
 44
279.3999938964844
 45
431.8000183105469
 46
0.0
 47
0.0
 48
0.0
 49
0.0
140
0.0
141
0.0
142
1.0
143
3.390426794445869
 70
 11952
 72
     0
 73
     1
 74
     1
  7
monochrome.ctb
 75
     0
147
0.2949481173397344
148
0.0873889752816979
149
0.0600747600600443
100
AcDbLayout
  1
Model
 70
     1
 71
     0
 10
0.0
 20
0.0
 11
12.0
 21
9.0
 12
0.0
 22
0.0
 32
0.0
 14
0.0
 24
0.0
 34
0.0
 15
0.0
 25
0.0
 35
0.0
146
0.0
 13
0.0
 23
0.0
 33
0.0
 16
1.0
 26
0.0
 36
0.0
 17
0.0
 27
1.0
 37
0.0
 76
     0
330
17
331
62BA
  0
MATERIAL
  5
62EE
102
{ACAD_XDICTIONARY
360
62EF
102
}
102
{ACAD_REACTORS
330
62E5
102
}
330
62E5
100
AcDbMaterial
  1
ByBlock
 72
     0
 43
0.0208333333333333
 43
0.0
 43
0.0
 43
0.0
 43
0.0
 43
0.0208333333333333
 43
0.0
 43
0.0
 43
0.0
 43
0.0
 43
1.0
 43
0.0
 43
0.0
 43
0.0
 43
0.0
 43
1.0
 77
     0
 47
0.0208333333333333
 47
0.0
 47
0.0
 47
0.0
 47
0.0
 47
0.0208333333333333
 47
0.0
 47
0.0
 47
0.0
 47
0.0
 47
1.0
 47
0.0
 47
0.0
 47
0.0
 47
0.0
 47
1.0
171
     0
 49
0.0208333333333333
 49
0.0
 49
0.0
 49
0.0
 49
0.0
 49
0.0208333333333333
 49
0.0
 49
0.0
 49
0.0
 49
0.0
 49
1.0
 49
0.0
 49
0.0
 49
0.0
 49
0.0
 49
1.0
175
     0
142
0.0208333333333333
142
0.0
142
0.0
142
0.0
142
0.0
142
0.0208333333333333
142
0.0
142
0.0
142
0.0
142
0.0
142
1.0
142
0.0
142
0.0
142
0.0
142
0.0
142
1.0
179
     0
144
0.0208333333333333
144
0.0
144
0.0
144
0.0
144
0.0
144
0.0208333333333333
144
0.0
144
0.0
144
0.0
144
0.0
144
1.0
144
0.0
144
0.0
144
0.0
144
0.0
144
1.0
147
0.0208333333333333
147
0.0
147
0.0
147
0.0
147
0.0
147
0.0208333333333333
147
0.0
147
0.0
147
0.0
147
0.0
147
1.0
147
0.0
147
0.0
147
0.0
147
0.0
147
1.0
  0
MATERIAL
  5
62E6
102
{ACAD_XDICTIONARY
360
62E7
102
}
102
{ACAD_REACTORS
330
62E5
102
}
330
62E5
100
AcDbMaterial
  1
ByLayer
 72
     0
 43
0.0208333333333333
 43
0.0
 43
0.0
 43
0.0
 43
0.0
 43
0.0208333333333333
 43
0.0
 43
0.0
 43
0.0
 43
0.0
 43
1.0
 43
0.0
 43
0.0
 43
0.0
 43
0.0
 43
1.0
 77
     0
 47
0.0208333333333333
 47
0.0
 47
0.0
 47
0.0
 47
0.0
 47
0.0208333333333333
 47
0.0
 47
0.0
 47
0.0
 47
0.0
 47
1.0
 47
0.0
 47
0.0
 47
0.0
 47
0.0
 47
1.0
171
     0
 49
0.0208333333333333
 49
0.0
 49
0.0
 49
0.0
 49
0.0
 49
0.0208333333333333
 49
0.0
 49
0.0
 49
0.0
 49
0.0
 49
1.0
 49
0.0
 49
0.0
 49
0.0
 49
0.0
 49
1.0
175
     0
142
0.0208333333333333
142
0.0
142
0.0
142
0.0
142
0.0
142
0.0208333333333333
142
0.0
142
0.0
142
0.0
142
0.0
142
1.0
142
0.0
142
0.0
142
0.0
142
0.0
142
1.0
179
     0
144
0.0208333333333333
144
0.0
144
0.0
144
0.0
144
0.0
144
0.0208333333333333
144
0.0
144
0.0
144
0.0
144
0.0
144
1.0
144
0.0
144
0.0
144
0.0
144
0.0
144
1.0
147
0.0208333333333333
147
0.0
147
0.0
147
0.0
147
0.0
147
0.0208333333333333
147
0.0
147
0.0
147
0.0
147
0.0
147
1.0
147
0.0
147
0.0
147
0.0
147
0.0
147
1.0
  0
MATERIAL
  5
62F6
102
{ACAD_XDICTIONARY
360
62F7
102
}
102
{ACAD_REACTORS
330
62E5
102
}
330
62E5
100
AcDbMaterial
  1
Global
 72
     0
 43
0.0208333333333333
 43
0.0
 43
0.0
 43
0.0
 43
0.0
 43
0.0208333333333333
 43
0.0
 43
0.0
 43
0.0
 43
0.0
 43
1.0
 43
0.0
 43
0.0
 43
0.0
 43
0.0
 43
1.0
 77
     0
 47
0.0208333333333333
 47
0.0
 47
0.0
 47
0.0
 47
0.0
 47
0.0208333333333333
 47
0.0
 47
0.0
 47
0.0
 47
0.0
 47
1.0
 47
0.0
 47
0.0
 47
0.0
 47
0.0
 47
1.0
171
     0
 49
0.0208333333333333
 49
0.0
 49
0.0
 49
0.0
 49
0.0
 49
0.0208333333333333
 49
0.0
 49
0.0
 49
0.0
 49
0.0
 49
1.0
 49
0.0
 49
0.0
 49
0.0
 49
0.0
 49
1.0
175
     0
142
0.0208333333333333
142
0.0
142
0.0
142
0.0
142
0.0
142
0.0208333333333333
142
0.0
142
0.0
142
0.0
142
0.0
142
1.0
142
0.0
142
0.0
142
0.0
142
0.0
142
1.0
179
     0
144
0.0208333333333333
144
0.0
144
0.0
144
0.0
144
0.0
144
0.0208333333333333
144
0.0
144
0.0
144
0.0
144
0.0
144
1.0
144
0.0
144
0.0
144
0.0
144
0.0
144
1.0
147
0.0208333333333333
147
0.0
147
0.0
147
0.0
147
0.0
147
0.0208333333333333
147
0.0
147
0.0
147
0.0
147
0.0
147
1.0
147
0.0
147
0.0
147
0.0
147
0.0
147
1.0
  0
MLEADERSTYLE
  5
632D
102
{ACAD_REACTORS
330
632C
102
}
330
632C
100
AcDbMLeaderStyle
170
     2
171
     1
172
     0
 90
        2
 40
0.0
 41
0.0
173
     1
 91
-1056964608
340
11
 92
       -2
290
     1
 42
0.09
291
     1
 43
0.36
  3
Standard
 44
0.18
300

342
F
174
     1
178
     6
175
     1
176
     0
 93
-1056964608
 45
0.18
292
     0
297
     0
 46
0.18
 94
-1056964608
 47
1.0
 49
1.0
140
1.0
293
     1
141
0.0
294
     1
177
     0
142
1.0
295
     0
296
     0
143
0.125
1001
ACAD_MLEADERVER
1070
     2
  0
MLINESTYLE
  5
1B
102
{ACAD_REACTORS
330
1A
102
}
330
1A
100
AcDbMlineStyle
  2
STANDARD
 70
     0
  3

 62
   256
 51
90.0
 52
90.0
 71
     2
 49
0.5
 62
   256
  6
BYLAYER
 49
-0.5
 62
   256
  6
BYLAYER
  0
ACDBPLACEHOLDER
  5
485B
102
{ACAD_REACTORS
330
485A
102
}
330
485A
  0
SCALE
  5
631B
102
{ACAD_REACTORS
330
631A
102
}
330
631A
100
AcDbScale
 70
     0
300
1:1
140
1.0
141
1.0
290
     1
  0
SCALE
  5
694B
102
{ACAD_REACTORS
330
631A
102
}
330
631A
100
AcDbScale
 70
     0
300
1/128" = 1'-0"
140
0.0078125
141
12.0
290
     0
  0
SCALE
  5
694C
102
{ACAD_REACTORS
330
631A
102
}
330
631A
100
AcDbScale
 70
     0
300
1/64" = 1'-0"
140
0.015625
141
12.0
290
     0
  0
SCALE
  5
694D
102
{ACAD_REACTORS
330
631A
102
}
330
631A
100
AcDbScale
 70
     0
300
1/32" = 1'-0"
140
0.03125
141
12.0
290
     0
  0
SCALE
  5
694E
102
{ACAD_REACTORS
330
631A
102
}
330
631A
100
AcDbScale
 70
     0
300
1/16" = 1'-0"
140
0.0625
141
12.0
290
     0
  0
SCALE
  5
694F
102
{ACAD_REACTORS
330
631A
102
}
330
631A
100
AcDbScale
 70
     0
300
3/32" = 1'-0"
140
0.09375
141
12.0
290
     0
  0
SCALE
  5
6950
102
{ACAD_REACTORS
330
631A
102
}
330
631A
100
AcDbScale
 70
     0
300
1/8" = 1'-0"
140
0.125
141
12.0
290
     0
  0
SCALE
  5
6951
102
{ACAD_REACTORS
330
631A
102
}
330
631A
100
AcDbScale
 70
     0
300
3/16" = 1'-0"
140
0.1875
141
12.0
290
     0
  0
SCALE
  5
6952
102
{ACAD_REACTORS
330
631A
102
}
330
631A
100
AcDbScale
 70
     0
300
1/4" = 1'-0"
140
0.25
141
12.0
290
     0
  0
SCALE
  5
6953
102
{ACAD_REACTORS
330
631A
102
}
330
631A
100
AcDbScale
 70
     0
300
3/8" = 1'-0"
140
0.375
141
12.0
290
     0
  0
SCALE
  5
6954
102
{ACAD_REACTORS
330
631A
102
}
330
631A
100
AcDbScale
 70
     0
300
1/2" = 1'-0"
140
0.5
141
12.0
290
     0
  0
SCALE
  5
6955
102
{ACAD_REACTORS
330
631A
102
}
330
631A
100
AcDbScale
 70
     0
300
3/4" = 1'-0"
140
0.75
141
12.0
290
     0
  0
SCALE
  5
6956
102
{ACAD_REACTORS
330
631A
102
}
330
631A
100
AcDbScale
 70
     0
300
1" = 1'-0"
140
1.0
141
12.0
290
     0
  0
SCALE
  5
6957
102
{ACAD_REACTORS
330
631A
102
}
330
631A
100
AcDbScale
 70
     0
300
1-1/2" = 1'-0"
140
1.5
141
12.0
290
     0
  0
SCALE
  5
6958
102
{ACAD_REACTORS
330
631A
102
}
330
631A
100
AcDbScale
 70
     0
300
3" = 1'-0"
140
3.0
141
12.0
290
     0
  0
SCALE
  5
6959
102
{ACAD_REACTORS
330
631A
102
}
330
631A
100
AcDbScale
 70
     0
300
6" = 1'-0"
140
6.0
141
12.0
290
     0
  0
SCALE
  5
695A
102
{ACAD_REACTORS
330
631A
102
}
330
631A
100
AcDbScale
 70
     0
300
1'-0" = 1'-0"
140
12.0
141
12.0
290
     0
  0
TABLESTYLE
  5
6319
102
{ACAD_XDICTIONARY
360
6368
102
}
102
{ACAD_REACTORS
330
6318
102
}
330
6318
100
AcDbTableStyle
  3
Standard
 70
     0
 71
     0
 40
0.06
 41
0.06
280
     0
281
     0
  7
STANDARD
140
0.18
170
     2
 62
     0
 63
     7
283
     0
274
    -2
284
     1
 64
     0
275
    -2
285
     1
 65
     0
276
    -2
286
     1
 66
     0
277
    -2
287
     1
 67
     0
278
    -2
288
     1
 68
     0
279
    -2
289
     1
 69
     0
  7
STANDARD
140
0.25
170
     5
 62
     0
 63
     7
283
     0
274
    -2
284
     1
 64
     0
275
    -2
285
     1
 65
     0
276
    -2
286
     1
 66
     0
277
    -2
287
     1
 67
     0
278
    -2
288
     1
 68
     0
279
    -2
289
     1
 69
     0
  7
STANDARD
140
0.18
170
     5
 62
     0
 63
     7
283
     0
274
    -2
284
     1
 64
     0
275
    -2
285
     1
 65
     0
276
    -2
286
     1
 66
     0
277
    -2
287
     1
 67
     0
278
    -2
288
     1
 68
     0
279
    -2
289
     1
 69
     0
  0
VISUALSTYLE
  5
6304
102
{ACAD_XDICTIONARY
360
69EB
102
}
102
{ACAD_REACTORS
330
62FE
102
}
330
62FE
100
AcDbVisualStyle
  2
2dWireframe
 70
     4
 71
     0
 72
     2
 73
     0
 90
        0
 40
-0.6
 41
-30.0
 62
     5
 63
     7
 74
     1
 91
        4
 64
     7
 65
   257
 75
     1
175
     1
 42
1.0
 92
        0
 66
   257
 43
1.0
 76
     1
 77
     6
 78
     2
 67
     7
 79
     5
170
     0
171
     0
290
     0
174
     0
 93
        1
 44
0.0
173
     0
291
     0
 45
0.0
1001
ACAD
1000
AcDbSavedByObjectVersion
1070
     0
  0
VISUALSTYLE
  5
696B
102
{ACAD_XDICTIONARY
360
6A12
102
}
102
{ACAD_REACTORS
330
62FE
102
}
330
62FE
100
AcDbVisualStyle
  2
3D Hidden
 70
     6
 71
     1
 72
     2
 73
     2
 90
        0
 40
-0.6
 41
-30.0
 62
     5
 63
     7
 74
     2
 91
        2
 64
     7
 65
   257
 75
     2
175
     1
 42
40.0
 92
        0
 66
   257
 43
1.0
 76
     1
 77
     6
 78
     2
 67
     7
 79
     3
170
     0
171
     0
290
     0
174
     0
 93
        1
 44
0.0
173
     0
291
     0
 45
0.0
1001
ACAD
1000
AcDbSavedByObjectVersion
1070
     0
  0
VISUALSTYLE
  5
696C
102
{ACAD_XDICTIONARY
360
6A14
102
}
102
{ACAD_REACTORS
330
62FE
102
}
330
62FE
100
AcDbVisualStyle
  2
3dWireframe
 70
     5
 71
     0
 72
     2
 73
     0
 90
        0
 40
-0.6
 41
-30.0
 62
     5
 63
     7
 74
     1
 91
        4
 64
     7
 65
   257
 75
     1
175
     1
 42
1.0
 92
        0
 66
   257
 43
1.0
 76
     1
 77
     6
 78
     2
 67
     7
 79
     5
170
     0
171
     0
290
     0
174
     0
 93
        1
 44
0.0
173
     0
291
     0
 45
0.0
1001
ACAD
1000
AcDbSavedByObjectVersion
1070
     0
  0
VISUALSTYLE
  5
6303
102
{ACAD_XDICTIONARY
360
69E9
102
}
102
{ACAD_REACTORS
330
62FE
102
}
330
62FE
100
AcDbVisualStyle
  2
Basic
 70
     7
 71
     1
 72
     0
 73
     1
 90
        0
 40
-0.6
 41
-30.0
 62
     5
 63
     7
 74
     0
 91
        4
 64
     7
 65
   257
 75
     1
175
     1
 42
1.0
 92
        8
 66
     7
 43
1.0
 76
     1
 77
     6
 78
     2
 67
     7
 79
     5
170
     0
171
     0
290
     0
174
     0
 93
        1
 44
0.0
173
     0
291
     1
 45
0.0
1001
ACAD
1000
AcDbSavedByObjectVersion
1070
     0
  0
VISUALSTYLE
  5
630A
102
{ACAD_XDICTIONARY
360
69F7
102
}
102
{ACAD_REACTORS
330
62FE
102
}
330
62FE
100
AcDbVisualStyle
  2
Brighten
 70
    12
 71
     2
 72
     2
 73
     0
 90
        0
 40
-0.6
 41
-30.0
 62
     5
 63
     7
 74
     1
 91
        4
 64
     7
 65
   257
 75
     1
175
     1
 42
1.0
 92
        8
 66
     7
 43
1.0
 76
     1
 77
     6
 78
     2
 67
     7
 79
     5
170
     0
171
     0
290
     0
174
     0
 93
        1
 44
50.0
173
     0
291
     1
 45
0.0
1001
ACAD
1000
AcDbSavedByObjectVersion
1070
     0
  0
VISUALSTYLE
  5
630E
102
{ACAD_XDICTIONARY
360
69FF
102
}
102
{ACAD_REACTORS
330
62FE
102
}
330
62FE
100
AcDbVisualStyle
  2
ColorChange
 70
    16
 71
     2
 72
     2
 73
     3
 90
        0
 40
-0.6
 41
-30.0
 62
     5
 63
     8
 74
     1
 91
        4
 64
     7
 65
   257
 75
     1
175
     1
 42
1.0
 92
        8
 66
     8
 43
1.0
 76
     1
 77
     6
 78
     2
 67
     7
 79
     5
170
     0
171
     0
290
     0
174
     0
 93
        1
 44
0.0
173
     0
291
     1
 45
0.0
1001
ACAD
1000
AcDbSavedByObjectVersion
1070
     0
  0
VISUALSTYLE
  5
6307
102
{ACAD_XDICTIONARY
360
69F1
102
}
102
{ACAD_REACTORS
330
62FE
102
}
330
62FE
100
AcDbVisualStyle
  2
Conceptual
 70
     9
 71
     3
 72
     2
 73
     0
 90
        0
 40
-0.6
 41
-30.0
 62
     5
 63
     7
 74
     2
 91
        2
 64
     7
 65
   257
 75
     1
175
     1
 42
179.0
 92
        8
 66
     7
 43
1.0
 76
     1
 77
     6
 78
     2
 67
     7
 79
     3
170
     0
171
     0
290
     0
174
     0
 93
        1
 44
0.0
173
     0
291
     0
 45
0.0
1001
ACAD
1000
AcDbSavedByObjectVersion
1070
     0
  0
VISUALSTYLE
  5
6309
102
{ACAD_XDICTIONARY
360
69F5
102
}
102
{ACAD_REACTORS
330
62FE
102
}
330
62FE
100
AcDbVisualStyle
  2
Dim
 70
    11
 71
     2
 72
     2
 73
     0
 90
        0
 40
-0.6
 41
-30.0
 62
     5
 63
     7
 74
     1
 91
        4
 64
     7
 65
   257
 75
     1
175
     1
 42
1.0
 92
        8
 66
     7
 43
1.0
 76
     1
 77
     6
 78
     2
 67
     7
 79
     5
170
     0
171
     0
290
     0
174
     0
 93
        1
 44
-50.0
173
     0
291
     1
 45
0.0
1001
ACAD
1000
AcDbSavedByObjectVersion
1070
     0
  0
VISUALSTYLE
  5
6316
102
{ACAD_XDICTIONARY
360
6A0F
102
}
102
{ACAD_REACTORS
330
62FE
102
}
330
62FE
100
AcDbVisualStyle
  2
EdgeColorOff
 70
    22
 71
     2
 72
     2
 73
     0
 90
        0
 40
-0.6
 41
-30.0
 62
     5
 63
     7
 74
     1
 91
        4
 64
     7
 65
   257
 75
     1
175
     1
 42
1.0
 92
        8
 66
     7
 43
1.0
 76
     1
 77
     6
 78
     2
 67
     7
 79
     5
170
     0
171
     0
290
     0
174
     0
 93
        1
 44
0.0
173
     0
291
     1
 45
0.0
1001
ACAD
1000
AcDbSavedByObjectVersion
1070
     0
  0
VISUALSTYLE
  5
630D
102
{ACAD_XDICTIONARY
360
69FD
102
}
102
{ACAD_REACTORS
330
62FE
102
}
330
62FE
100
AcDbVisualStyle
  2
Facepattern
 70
    15
 71
     2
 72
     2
 73
     0
 90
        0
 40
-0.6
 41
-30.0
 62
     5
 63
     7
 74
     1
 91
        4
 64
     7
 65
   257
 75
     1
175
     1
 42
1.0
 92
        8
 66
     7
 43
1.0
 76
     1
 77
     6
 78
     2
 67
     7
 79
     5
170
     0
171
     0
290
     0
174
     0
 93
        1
 44
0.0
173
     0
291
     1
 45
0.0
1001
ACAD
1000
AcDbSavedByObjectVersion
1070
     0
  0
VISUALSTYLE
  5
62FF
102
{ACAD_XDICTIONARY
360
69E1
102
}
102
{ACAD_REACTORS
330
62FE
102
}
330
62FE
100
AcDbVisualStyle
  2
Flat
 70
     0
 71
     2
 72
     1
 73
     1
 90
        2
 40
-0.6
 41
30.0
 62
     5
 63
     7
 74
     0
 91
        0
 64
     7
 65
   257
 75
     1
175
     1
 42
1.0
 92
        8
 66
     7
 43
1.0
 76
     1
 77
     6
 78
     2
 67
     7
 79
     5
170
     0
171
     0
290
     0
174
     0
 93
       13
 44
0.0
173
     0
291
     1
 45
0.0
1001
ACAD
1000
AcDbSavedByObjectVersion
1070
     0
  0
VISUALSTYLE
  5
6300
102
{ACAD_XDICTIONARY
360
69E3
102
}
102
{ACAD_REACTORS
330
62FE
102
}
330
62FE
100
AcDbVisualStyle
  2
FlatWithEdges
 70
     1
 71
     2
 72
     1
 73
     1
 90
        2
 40
-0.6
 41
30.0
 62
     5
 63
     7
 74
     1
 91
        0
 64
     7
 65
   257
 75
     1
175
     1
 42
1.0
 92
        0
 66
   257
 43
1.0
 76
     1
 77
     6
 78
     2
 67
     7
 79
     5
170
     0
171
     0
290
     0
174
     0
 93
       13
 44
0.0
173
     0
291
     1
 45
0.0
1001
ACAD
1000
AcDbSavedByObjectVersion
1070
     0
  0
VISUALSTYLE
  5
6301
102
{ACAD_XDICTIONARY
360
69E5
102
}
102
{ACAD_REACTORS
330
62FE
102
}
330
62FE
100
AcDbVisualStyle
  2
Gouraud
 70
     2
 71
     2
 72
     2
 73
     1
 90
        2
 40
-0.6
 41
30.0
 62
     5
 63
     7
 74
     0
 91
        0
 64
     7
 65
   257
 75
     1
175
     1
 42
1.0
 92
        0
 66
     7
 43
1.0
 76
     1
 77
     6
 78
     2
 67
     7
 79
     5
170
     0
171
     0
290
     0
174
     0
 93
       13
 44
0.0
173
     0
291
     1
 45
0.0
1001
ACAD
1000
AcDbSavedByObjectVersion
1070
     0
  0
VISUALSTYLE
  5
6302
102
{ACAD_XDICTIONARY
360
69E7
102
}
102
{ACAD_REACTORS
330
62FE
102
}
330
62FE
100
AcDbVisualStyle
  2
GouraudWithEdges
 70
     3
 71
     2
 72
     2
 73
     1
 90
        2
 40
-0.6
 41
30.0
 62
     5
 63
     7
 74
     1
 91
        0
 64
     7
 65
   257
 75
     1
175
     1
 42
1.0
 92
        0
 66
   257
 43
1.0
 76
     1
 77
     6
 78
     2
 67
     7
 79
     5
170
     0
171
     0
290
     0
174
     0
 93
       13
 44
0.0
173
     0
291
     1
 45
0.0
1001
ACAD
1000
AcDbSavedByObjectVersion
1070
     0
  0
VISUALSTYLE
  5
6306
102
{ACAD_XDICTIONARY
360
69EF
102
}
102
{ACAD_REACTORS
330
62FE
102
}
330
62FE
100
AcDbVisualStyle
  2
Hidden
 70
     6
 71
     1
 72
     2
 73
     2
 90
        0
 40
-0.6
 41
-30.0
 62
     5
 63
     7
 74
     2
 91
        2
 64
     7
 65
   257
 75
     2
175
     1
 42
40.0
 92
        0
 66
   257
 43
1.0
 76
     1
 77
     6
 78
     2
 67
     7
 79
     3
170
     0
171
     0
290
     0
174
     0
 93
        1
 44
0.0
173
     0
291
     0
 45
0.0
1001
ACAD
1000
AcDbSavedByObjectVersion
1070
     0
  0
VISUALSTYLE
  5
6314
102
{ACAD_XDICTIONARY
360
6A0B
102
}
102
{ACAD_REACTORS
330
62FE
102
}
330
62FE
100
AcDbVisualStyle
  2
JitterOff
 70
    20
 71
     2
 72
     2
 73
     0
 90
        0
 40
-0.6
 41
-30.0
 62
     5
 63
     7
 74
     1
 91
        4
 64
     7
 65
   257
 75
     1
175
     1
 42
1.0
 92
       10
 66
     7
 43
1.0
 76
     1
 77
     6
 78
     2
 67
     7
 79
     5
170
     0
171
     0
290
     0
174
     0
 93
        1
 44
0.0
173
     0
291
     1
 45
0.0
1001
ACAD
1000
AcDbSavedByObjectVersion
1070
     0
  0
VISUALSTYLE
  5
630C
102
{ACAD_XDICTIONARY
360
69FB
102
}
102
{ACAD_REACTORS
330
62FE
102
}
330
62FE
100
AcDbVisualStyle
  2
Linepattern
 70
    14
 71
     2
 72
     2
 73
     0
 90
        0
 40
-0.6
 41
-30.0
 62
     5
 63
     7
 74
     1
 91
        4
 64
     7
 65
   257
 75
     7
175
     7
 42
1.0
 92
        8
 66
     7
 43
1.0
 76
     1
 77
     6
 78
     2
 67
     7
 79
     5
170
     0
171
     0
290
     0
174
     0
 93
        1
 44
0.0
173
     0
291
     1
 45
0.0
1001
ACAD
1000
AcDbSavedByObjectVersion
1070
     0
  0
VISUALSTYLE
  5
6315
102
{ACAD_XDICTIONARY
360
6A0D
102
}
102
{ACAD_REACTORS
330
62FE
102
}
330
62FE
100
AcDbVisualStyle
  2
OverhangOff
 70
    21
 71
     2
 72
     2
 73
     0
 90
        0
 40
-0.6
 41
-30.0
 62
     5
 63
     7
 74
     1
 91
        4
 64
     7
 65
   257
 75
     1
175
     1
 42
1.0
 92
        9
 66
     7
 43
1.0
 76
     1
 77
     6
 78
     2
 67
     7
 79
     5
170
     0
171
     0
290
     0
174
     0
 93
        1
 44
0.0
173
     0
291
     1
 45
0.0
1001
ACAD
1000
AcDbSavedByObjectVersion
1070
     0
  0
VISUALSTYLE
  5
6308
102
{ACAD_XDICTIONARY
360
69F3
102
}
102
{ACAD_REACTORS
330
62FE
102
}
330
62FE
100
AcDbVisualStyle
  2
Realistic
 70
     8
 71
     2
 72
     2
 73
     0
 90
        2
 40
-0.6
 41
30.0
 62
     5
 63
     7
 74
     0
 91
        0
 64
     7
 65
   257
 75
     1
175
     1
 42
1.0
 92
        8
 66
   257
 43
1.0
 76
     1
 77
     6
 78
     2
 67
     7
 79
     3
170
     0
171
     0
290
     0
174
     0
 93
       13
 44
0.0
173
     0
291
     0
 45
0.0
1001
ACAD
1000
AcDbSavedByObjectVersion
1070
     0
  0
VISUALSTYLE
  5
6313
102
{ACAD_XDICTIONARY
360
6A09
102
}
102
{ACAD_REACTORS
330
62FE
102
}
330
62FE
100
AcDbVisualStyle
  2
Shaded
 70
    27
 71
     2
 72
     2
 73
     1
 90
        2
 40
-0.6
 41
30.0
 62
     5
 63
     7
 74
     0
 91
        4
 64
     7
 65
   257
 75
     1
175
     1
 42
1.0
 92
        8
 66
   257
 43
1.0
 76
     1
 77
     6
 78
     2
 67
     8
 79
     3
170
     0
171
     0
290
     0
174
     0
 93
        5
 44
0.0
173
     0
291
     0
 45
0.0
1001
ACAD
1000
AcDbSavedByObjectVersion
1070
     0
  0
VISUALSTYLE
  5
6312
102
{ACAD_XDICTIONARY
360
6A07
102
}
102
{ACAD_REACTORS
330
62FE
102
}
330
62FE
100
AcDbVisualStyle
  2
Shaded with edges
 70
    26
 71
     2
 72
     2
 73
     1
 90
        2
 40
-0.6
 41
30.0
 62
     5
 63
     7
 74
     1
 91
       10
 64
     7
 65
   257
 75
     2
175
     1
 42
1.0
 92
        8
 66
   257
 43
1.0
 76
     1
 77
     6
 78
     2
 67
     7
 79
     3
170
     0
171
     0
290
     0
174
     0
 93
        5
 44
0.0
173
     0
291
     0
 45
0.0
1001
ACAD
1000
AcDbSavedByObjectVersion
1070
     0
  0
VISUALSTYLE
  5
630F
102
{ACAD_XDICTIONARY
360
6A01
102
}
102
{ACAD_REACTORS
330
62FE
102
}
330
62FE
100
AcDbVisualStyle
  2
Shades of Gray
 70
    23
 71
     2
 72
     2
 73
     3
 90
        0
 40
-0.6
 41
-30.0
 62
     5
 63
     7
 74
     2
 91
        2
 64
     7
 65
     7
 75
     1
175
     1
 42
40.0
 92
        8
 66
     7
 43
1.0
 76
     1
 77
     6
 78
     2
 67
     7
 79
     3
170
     0
171
     0
290
     0
174
     0
 93
        1
 44
0.0
173
     0
291
     0
 45
0.0
1001
ACAD
1000
AcDbSavedByObjectVersion
1070
     0
  0
VISUALSTYLE
  5
6310
102
{ACAD_XDICTIONARY
360
6A03
102
}
102
{ACAD_REACTORS
330
62FE
102
}
330
62FE
100
AcDbVisualStyle
  2
Sketchy
 70
    24
 71
     1
 72
     2
 73
     2
 90
        0
 40
-0.6
 41
-30.0
 62
     5
 63
     7
 74
     2
 91
        2
 64
     7
 65
     7
 75
     1
175
     1
 42
40.0
 92
       11
 66
     7
 43
1.0
 76
     1
 77
     6
 78
     2
 67
     7
 79
     6
170
     0
171
     0
290
     0
174
     0
 93
        1
 44
0.0
173
     0
291
     0
 45
0.0
1001
ACAD
1000
AcDbSavedByObjectVersion
1070
     0
  0
VISUALSTYLE
  5
630B
102
{ACAD_XDICTIONARY
360
69F9
102
}
102
{ACAD_REACTORS
330
62FE
102
}
330
62FE
100
AcDbVisualStyle
  2
Thicken
 70
    13
 71
     2
 72
     2
 73
     0
 90
        0
 40
-0.6
 41
-30.0
 62
     5
 63
     7
 74
     1
 91
        4
 64
     7
 65
   257
 75
     1
175
     1
 42
1.0
 92
       12
 66
     7
 43
1.0
 76
     1
 77
     6
 78
     2
 67
     7
 79
     5
170
     0
171
     0
290
     0
174
     0
 93
        1
 44
0.0
173
     0
291
     1
 45
0.0
1001
ACAD
1000
AcDbSavedByObjectVersion
1070
     0
  0
VISUALSTYLE
  5
6305
102
{ACAD_XDICTIONARY
360
69ED
102
}
102
{ACAD_REACTORS
330
62FE
102
}
330
62FE
100
AcDbVisualStyle
  2
Wireframe
 70
     5
 71
     0
 72
     2
 73
     0
 90
        0
 40
-0.6
 41
-30.0
 62
     5
 63
     7
 74
     1
 91
        4
 64
     7
 65
   257
 75
     1
175
     1
 42
1.0
 92
        0
 66
   257
 43
1.0
 76
     1
 77
     6
 78
     2
 67
     7
 79
     3
170
     0
171
     0
290
     0
174
     0
 93
        1
 44
0.0
173
     0
291
     0
 45
0.0
1001
ACAD
1000
AcDbSavedByObjectVersion
1070
     0
  0
VISUALSTYLE
  5
6311
102
{ACAD_XDICTIONARY
360
6A05
102
}
102
{ACAD_REACTORS
330
62FE
102
}
330
62FE
100
AcDbVisualStyle
  2
X-Ray
 70
    25
 71
     2
 72
     2
 73
     1
 90
        1
 40
0.5
 41
-30.0
 62
     5
 63
     7
 74
     1
 91
        0
 64
     7
 65
   257
 75
     1
175
     1
 42
1.0
 92
        8
 66
     7
 43
1.0
 76
     1
 77
     6
 78
     2
 67
     7
 79
     3
170
     0
171
     0
290
     0
174
     0
 93
       13
 44
0.0
173
     0
291
     0
 45
0.0
1001
ACAD
1000
AcDbSavedByObjectVersion
1070
     0
  0
DICTIONARYVAR
  5
63A9
102
{ACAD_REACTORS
330
3E
102
}
330
3E
100
DictionaryVariables
280
     0
  1
1:1
  0
DICTIONARYVAR
  5
63A8
102
{ACAD_REACTORS
330
3E
102
}
330
3E
100
DictionaryVariables
280
     0
  1
STANDARD
  0
DICTIONARYVAR
  5
63A7
102
{ACAD_REACTORS
330
3E
102
}
330
3E
100
DictionaryVariables
280
     0
  1
STANDARD
  0
DICTIONARYVAR
  5
3F
102
{ACAD_REACTORS
330
3E
102
}
330
3E
100
DictionaryVariables
280
     0
  1
0
  0
DICTIONARYVAR
  5
63AC
102
{ACAD_REACTORS
330
3E
102
}
330
3E
100
DictionaryVariables
280
     0
  1
1
  0
DICTIONARYVAR
  5
63AB
102
{ACAD_REACTORS
330
3E
102
}
330
3E
100
DictionaryVariables
280
     0
  1
0
  0
DICTIONARYVAR
  5
69C8
102
{ACAD_REACTORS
330
3E
102
}
330
3E
100
DictionaryVariables
280
     0
  1
1
  0
DICTIONARYVAR
  5
69C9
102
{ACAD_REACTORS
330
3E
102
}
330
3E
100
DictionaryVariables
280
     0
  1
15
  0
DICTIONARYVAR
  5
69C7
102
{ACAD_REACTORS
330
3E
102
}
330
3E
100
DictionaryVariables
280
     0
  1
0
  0
DICTIONARYVAR
  5
69C6
102
{ACAD_REACTORS
330
3E
102
}
330
3E
100
DictionaryVariables
280
     0
  1
0
  0
DICTIONARYVAR
  5
63AA
102
{ACAD_REACTORS
330
3E
102
}
330
3E
100
DictionaryVariables
280
     0
  1
127
  0
DICTIONARYVAR
  5
69D4
102
{ACAD_REACTORS
330
3E
102
}
330
3E
100
DictionaryVariables
280
     0
  1
2
  0
DICTIONARY
  5
69DC
330
485F
100
AcDbDictionary
280
     1
281
     1
  3
ACAD_XREC_ROUNDTRIP
360
69DD
  0
DICTIONARY
  5
69DA
330
485E
100
AcDbDictionary
280
     1
281
     1
  3
ACAD_XREC_ROUNDTRIP
360
69DB
  0
DICTIONARY
  5
62EF
330
62EE
100
AcDbDictionary
280
     1
281
     1
  3
ACAD_XREC_ROUNDTRIP
360
69DF
  3
BUMPTILE
360
62F1
  3
DIFFUSETILE
360
62F0
  3
OPACITYTILE
360
62F4
  3
REFLECTIONTILE
360
62F3
  3
REFRACTIONTILE
360
62F5
  3
SPECULARTILE
360
62F2
  0
DICTIONARY
  5
62E7
330
62E6
100
AcDbDictionary
280
     1
281
     1
  3
ACAD_XREC_ROUNDTRIP
360
69DE
  3
BUMPTILE
360
62E9
  3
DIFFUSETILE
360
62E8
  3
OPACITYTILE
360
62EC
  3
REFLECTIONTILE
360
62EB
  3
REFRACTIONTILE
360
62ED
  3
SPECULARTILE
360
62EA
  0
DICTIONARY
  5
62F7
330
62F6
100
AcDbDictionary
280
     1
281
     1
  3
ACAD_XREC_ROUNDTRIP
360
69E0
  3
BUMPTILE
360
62F9
  3
DIFFUSETILE
360
62F8
  3
OPACITYTILE
360
62FC
  3
REFLECTIONTILE
360
62FB
  3
REFRACTIONTILE
360
62FD
  3
SPECULARTILE
360
62FA
  0
DICTIONARY
  5
6368
330
6319
100
AcDbDictionary
280
     1
281
     1
  3
ACAD_ROUNDTRIP_2008_TABLESTYLE_CELLSTYLEMAP
360
69D5
  3
ACAD_XREC_ROUNDTRIP
360
6A11
  0
DICTIONARY
  5
69EB
330
6304
100
AcDbDictionary
280
     1
281
     1
  3
ACAD_XREC_ROUNDTRIP
360
69EC
  0
DICTIONARY
  5
6A12
330
696B
100
AcDbDictionary
280
     1
281
     1
  3
ACAD_XREC_ROUNDTRIP
360
6A13
  0
DICTIONARY
  5
6A14
330
696C
100
AcDbDictionary
280
     1
281
     1
  3
ACAD_XREC_ROUNDTRIP
360
6A15
  0
DICTIONARY
  5
69E9
330
6303
100
AcDbDictionary
280
     1
281
     1
  3
ACAD_XREC_ROUNDTRIP
360
69EA
  0
DICTIONARY
  5
69F7
330
630A
100
AcDbDictionary
280
     1
281
     1
  3
ACAD_XREC_ROUNDTRIP
360
69F8
  0
DICTIONARY
  5
69FF
330
630E
100
AcDbDictionary
280
     1
281
     1
  3
ACAD_XREC_ROUNDTRIP
360
6A00
  0
DICTIONARY
  5
69F1
330
6307
100
AcDbDictionary
280
     1
281
     1
  3
ACAD_XREC_ROUNDTRIP
360
69F2
  0
DICTIONARY
  5
69F5
330
6309
100
AcDbDictionary
280
     1
281
     1
  3
ACAD_XREC_ROUNDTRIP
360
69F6
  0
DICTIONARY
  5
6A0F
330
6316
100
AcDbDictionary
280
     1
281
     1
  3
ACAD_XREC_ROUNDTRIP
360
6A10
  0
DICTIONARY
  5
69FD
330
630D
100
AcDbDictionary
280
     1
281
     1
  3
ACAD_XREC_ROUNDTRIP
360
69FE
  0
DICTIONARY
  5
69E1
330
62FF
100
AcDbDictionary
280
     1
281
     1
  3
ACAD_XREC_ROUNDTRIP
360
69E2
  0
DICTIONARY
  5
69E3
330
6300
100
AcDbDictionary
280
     1
281
     1
  3
ACAD_XREC_ROUNDTRIP
360
69E4
  0
DICTIONARY
  5
69E5
330
6301
100
AcDbDictionary
280
     1
281
     1
  3
ACAD_XREC_ROUNDTRIP
360
69E6
  0
DICTIONARY
  5
69E7
330
6302
100
AcDbDictionary
280
     1
281
     1
  3
ACAD_XREC_ROUNDTRIP
360
69E8
  0
DICTIONARY
  5
69EF
330
6306
100
AcDbDictionary
280
     1
281
     1
  3
ACAD_XREC_ROUNDTRIP
360
69F0
  0
DICTIONARY
  5
6A0B
330
6314
100
AcDbDictionary
280
     1
281
     1
  3
ACAD_XREC_ROUNDTRIP
360
6A0C
  0
DICTIONARY
  5
69FB
330
630C
100
AcDbDictionary
280
     1
281
     1
  3
ACAD_XREC_ROUNDTRIP
360
69FC
  0
DICTIONARY
  5
6A0D
330
6315
100
AcDbDictionary
280
     1
281
     1
  3
ACAD_XREC_ROUNDTRIP
360
6A0E
  0
DICTIONARY
  5
69F3
330
6308
100
AcDbDictionary
280
     1
281
     1
  3
ACAD_XREC_ROUNDTRIP
360
69F4
  0
DICTIONARY
  5
6A09
330
6313
100
AcDbDictionary
280
     1
281
     1
  3
ACAD_XREC_ROUNDTRIP
360
6A0A
  0
DICTIONARY
  5
6A07
330
6312
100
AcDbDictionary
280
     1
281
     1
  3
ACAD_XREC_ROUNDTRIP
360
6A08
  0
DICTIONARY
  5
6A01
330
630F
100
AcDbDictionary
280
     1
281
     1
  3
ACAD_XREC_ROUNDTRIP
360
6A02
  0
DICTIONARY
  5
6A03
330
6310
100
AcDbDictionary
280
     1
281
     1
  3
ACAD_XREC_ROUNDTRIP
360
6A04
  0
DICTIONARY
  5
69F9
330
630B
100
AcDbDictionary
280
     1
281
     1
  3
ACAD_XREC_ROUNDTRIP
360
69FA
  0
DICTIONARY
  5
69ED
330
6305
100
AcDbDictionary
280
     1
281
     1
  3
ACAD_XREC_ROUNDTRIP
360
69EE
  0
DICTIONARY
  5
6A05
330
6311
100
AcDbDictionary
280
     1
281
     1
  3
ACAD_XREC_ROUNDTRIP
360
6A06
  0
XRECORD
  5
69DD
102
{ACAD_REACTORS
330
69DC
102
}
330
69DC
100
AcDbXrecord
280
     1
102
SHADEPLOT
 70
     0
102
SHADEPLOTRESLEVEL
 70
     2
102
SHADEPLOTCUSTOMDPI
 70
   300
  0
XRECORD
  5
69DB
102
{ACAD_REACTORS
330
69DA
102
}
330
69DA
100
AcDbXrecord
280
     1
102
SHADEPLOT
 70
     0
102
SHADEPLOTRESLEVEL
 70
     2
102
SHADEPLOTCUSTOMDPI
 70
   300
  0
XRECORD
  5
69DF
102
{ACAD_REACTORS
330
62EF
102
}
330
62EF
100
AcDbXrecord
280
     1
102
MATERIAL
148
0.0
149
0.0
149
0.0
 93
        0
 94
      127
282
     0
 72
     0
 77
     0
171
     0
175
     0
179
     0
273
     0
  0
XRECORD
  5
62F1
102
{ACAD_REACTORS
330
62EF
102
}
330
62EF
100
AcDbXrecord
280
     1
270
     1
271
     1
  0
XRECORD
  5
62F0
102
{ACAD_REACTORS
330
62EF
102
}
330
62EF
100
AcDbXrecord
280
     1
270
     1
271
     1
  0
XRECORD
  5
62F4
102
{ACAD_REACTORS
330
62EF
102
}
330
62EF
100
AcDbXrecord
280
     1
270
     1
271
     1
  0
XRECORD
  5
62F3
102
{ACAD_REACTORS
330
62EF
102
}
330
62EF
100
AcDbXrecord
280
     1
270
     1
271
     1
  0
XRECORD
  5
62F5
102
{ACAD_REACTORS
330
62EF
102
}
330
62EF
100
AcDbXrecord
280
     1
270
     1
271
     1
  0
XRECORD
  5
62F2
102
{ACAD_REACTORS
330
62EF
102
}
330
62EF
100
AcDbXrecord
280
     1
270
     1
271
     1
  0
XRECORD
  5
69DE
102
{ACAD_REACTORS
330
62E7
102
}
330
62E7
100
AcDbXrecord
280
     1
102
MATERIAL
148
0.0
149
0.0
149
0.0
 93
        0
 94
      127
282
     0
 72
     0
 77
     0
171
     0
175
     0
179
     0
273
     0
  0
XRECORD
  5
62E9
102
{ACAD_REACTORS
330
62E7
102
}
330
62E7
100
AcDbXrecord
280
     1
270
     1
271
     1
  0
XRECORD
  5
62E8
102
{ACAD_REACTORS
330
62E7
102
}
330
62E7
100
AcDbXrecord
280
     1
270
     1
271
     1
  0
XRECORD
  5
62EC
102
{ACAD_REACTORS
330
62E7
102
}
330
62E7
100
AcDbXrecord
280
     1
270
     1
271
     1
  0
XRECORD
  5
62EB
102
{ACAD_REACTORS
330
62E7
102
}
330
62E7
100
AcDbXrecord
280
     1
270
     1
271
     1
  0
XRECORD
  5
62ED
102
{ACAD_REACTORS
330
62E7
102
}
330
62E7
100
AcDbXrecord
280
     1
270
     1
271
     1
  0
XRECORD
  5
62EA
102
{ACAD_REACTORS
330
62E7
102
}
330
62E7
100
AcDbXrecord
280
     1
270
     1
271
     1
  0
XRECORD
  5
69E0
102
{ACAD_REACTORS
330
62F7
102
}
330
62F7
100
AcDbXrecord
280
     1
102
MATERIAL
148
0.0
149
0.0
149
0.0
 93
        0
 94
      127
282
     0
 72
     0
 77
     0
171
     0
175
     0
179
     0
273
     0
  0
XRECORD
  5
62F9
102
{ACAD_REACTORS
330
62F7
102
}
330
62F7
100
AcDbXrecord
280
     1
270
     1
271
     1
  0
XRECORD
  5
62F8
102
{ACAD_REACTORS
330
62F7
102
}
330
62F7
100
AcDbXrecord
280
     1
270
     1
271
     1
  0
XRECORD
  5
62FC
102
{ACAD_REACTORS
330
62F7
102
}
330
62F7
100
AcDbXrecord
280
     1
270
     1
271
     1
  0
XRECORD
  5
62FB
102
{ACAD_REACTORS
330
62F7
102
}
330
62F7
100
AcDbXrecord
280
     1
270
     1
271
     1
  0
XRECORD
  5
62FD
102
{ACAD_REACTORS
330
62F7
102
}
330
62F7
100
AcDbXrecord
280
     1
270
     1
271
     1
  0
XRECORD
  5
62FA
102
{ACAD_REACTORS
330
62F7
102
}
330
62F7
100
AcDbXrecord
280
     1
270
     1
271
     1
  0
CELLSTYLEMAP
  5
69D5
102
{ACAD_REACTORS
330
6368
102
}
330
6368
100
AcDbCellStyleMap
 90
        3
300
CELLSTYLE
  1
TABLEFORMAT_BEGIN
 90
        5
170
     1
 91
        0
 92
    32768
 62
   257
 93
        1
300
CONTENTFORMAT
  1
CONTENTFORMAT_BEGIN
 90
        0
 91
        0
 92
      512
 93
        0
300

 40
0.0
140
1.0
 94
        5
 62
     0
340
F
144
0.25
309
CONTENTFORMAT_END
171
     0
 94
        0
309
TABLEFORMAT_END
  1
CELLSTYLE_BEGIN
 90
        1
 91
        1
300
_TITLE
309
CELLSTYLE_END
300
CELLSTYLE
  1
TABLEFORMAT_BEGIN
 90
        5
170
     1
 91
        0
 92
        0
 62
   257
 93
        1
300
CONTENTFORMAT
  1
CONTENTFORMAT_BEGIN
 90
        0
 91
        0
 92
      512
 93
        0
300

 40
0.0
140
1.0
 94
        5
 62
     0
340
F
144
0.18
309
CONTENTFORMAT_END
171
     0
 94
        0
309
TABLEFORMAT_END
  1
CELLSTYLE_BEGIN
 90
        2
 91
        1
300
_HEADER
309
CELLSTYLE_END
300
CELLSTYLE
  1
TABLEFORMAT_BEGIN
 90
        5
170
     1
 91
        0
 92
        0
 62
   257
 93
        1
300
CONTENTFORMAT
  1
CONTENTFORMAT_BEGIN
 90
        0
 91
        0
 92
      512
 93
        0
300

 40
0.0
140
1.0
 94
        2
 62
     0
340
F
144
0.18
309
CONTENTFORMAT_END
171
     0
 94
        0
309
TABLEFORMAT_END
  1
CELLSTYLE_BEGIN
 90
        3
 91
        2
300
_DATA
309
CELLSTYLE_END
  0
XRECORD
  5
6A11
102
{ACAD_REACTORS
330
6368
102
}
330
6368
100
AcDbXrecord
280
     1
102
ACAD_ROUNDTRIP_PRE2007_TABLESTYLE
 90
      512
 91
        0
  1

 92
      512
 93
        0
  2

 94
      512
 95
        0
  3

  0
XRECORD
  5
69EC
102
{ACAD_REACTORS
330
69EB
102
}
330
69EB
100
AcDbXrecord
280
     1
102
RTVSPropertyOp0
 70
     1
102
RTVSPropertyOp1
 70
     1
102
RTVSPropertyOp2
 70
     1
102
RTVSPropertyOp3
 70
     1
102
RTVSPropertyOp4
 70
     1
102
RTVSPropertyOp5
 70
     1
102
RTVSPropertyOp6
 70
     1
102
RTVSPropertyOp7
 70
     1
102
RTVSPropertyOp8
 70
     1
102
RTVSPropertyOp9
 70
     1
102
RTVSPropertyOp10
 70
     1
102
RTVSPropertyOp11
 70
     1
102
RTVSPropertyOp12
 70
     1
102
RTVSPropertyOp13
 70
     1
102
RTVSPropertyOp14
 70
     1
102
RTVSPropertyOp15
 70
     1
102
RTVSPropertyOp16
 70
     1
102
RTVSPropertyOp17
 70
     1
102
RTVSPropertyOp18
 70
     1
102
RTVSPropertyOp19
 70
     1
102
RTVSPropertyOp20
 70
     1
102
RTVSPropertyOp21
 70
     1
102
RTVSPropertyOp22
 70
     1
102
RTVSPropertyOp23
 70
     1
102
RTVSPropertyOp24
 70
     1
102
RTVSPropertyOp25
 70
     1
102
RTVSPropertyOp26
 70
     1
102
RTVSPropertyOp27
 70
     1
102
RTVSPropertyOp28
 70
     1
102
RTVSPropertyOp29
 70
     1
102
RTVSPropertyOp30
 70
     1
102
RTVSPropertyOp31
 70
     1
102
RTVSPropertyOp32
 70
     1
  0
XRECORD
  5
6A13
102
{ACAD_REACTORS
330
6A12
102
}
330
6A12
100
AcDbXrecord
280
     1
102
RTVSPropertyOp0
 70
     1
102
RTVSPropertyOp1
 70
     1
102
RTVSPropertyOp2
 70
     1
102
RTVSPropertyOp3
 70
     1
102
RTVSPropertyOp4
 70
     1
102
RTVSPropertyOp5
 70
     1
102
RTVSPropertyOp6
 70
     1
102
RTVSPropertyOp7
 70
     1
102
RTVSPropertyOp8
 70
     1
102
RTVSPropertyOp9
 70
     1
102
RTVSPropertyOp10
 70
     1
102
RTVSPropertyOp11
 70
     1
102
RTVSPropertyOp12
 70
     1
102
RTVSPropertyOp13
 70
     1
102
RTVSPropertyOp14
 70
     1
102
RTVSPropertyOp15
 70
     1
102
RTVSPropertyOp16
 70
     1
102
RTVSPropertyOp17
 70
     1
102
RTVSPropertyOp18
 70
     1
102
RTVSPropertyOp19
 70
     1
102
RTVSPropertyOp20
 70
     1
102
RTVSPropertyOp21
 70
     1
102
RTVSPropertyOp22
 70
     1
102
RTVSPropertyOp23
 70
     1
102
RTVSPropertyOp24
 70
     1
102
RTVSPropertyOp25
 70
     1
102
RTVSPropertyOp26
 70
     1
102
RTVSPropertyOp27
 70
     1
102
RTVSPropertyOp28
 70
     1
102
RTVSPropertyOp29
 70
     1
102
RTVSPropertyOp30
 70
     1
102
RTVSPropertyOp31
 70
     1
102
RTVSPropertyOp32
 70
     1
  0
XRECORD
  5
6A15
102
{ACAD_REACTORS
330
6A14
102
}
330
6A14
100
AcDbXrecord
280
     1
102
RTVSPropertyOp0
 70
     1
102
RTVSPropertyOp1
 70
     1
102
RTVSPropertyOp2
 70
     1
102
RTVSPropertyOp3
 70
     1
102
RTVSPropertyOp4
 70
     1
102
RTVSPropertyOp5
 70
     1
102
RTVSPropertyOp6
 70
     1
102
RTVSPropertyOp7
 70
     1
102
RTVSPropertyOp8
 70
     1
102
RTVSPropertyOp9
 70
     1
102
RTVSPropertyOp10
 70
     1
102
RTVSPropertyOp11
 70
     1
102
RTVSPropertyOp12
 70
     1
102
RTVSPropertyOp13
 70
     1
102
RTVSPropertyOp14
 70
     1
102
RTVSPropertyOp15
 70
     1
102
RTVSPropertyOp16
 70
     1
102
RTVSPropertyOp17
 70
     1
102
RTVSPropertyOp18
 70
     1
102
RTVSPropertyOp19
 70
     1
102
RTVSPropertyOp20
 70
     1
102
RTVSPropertyOp21
 70
     1
102
RTVSPropertyOp22
 70
     1
102
RTVSPropertyOp23
 70
     1
102
RTVSPropertyOp24
 70
     1
102
RTVSPropertyOp25
 70
     1
102
RTVSPropertyOp26
 70
     1
102
RTVSPropertyOp27
 70
     1
102
RTVSPropertyOp28
 70
     1
102
RTVSPropertyOp29
 70
     1
102
RTVSPropertyOp30
 70
     1
102
RTVSPropertyOp31
 70
     1
102
RTVSPropertyOp32
 70
     1
  0
XRECORD
  5
69EA
102
{ACAD_REACTORS
330
69E9
102
}
330
69E9
100
AcDbXrecord
280
     1
102
RTVSPropertyOp0
 70
     1
102
RTVSPropertyOp1
 70
     1
102
RTVSPropertyOp2
 70
     1
102
RTVSPropertyOp3
 70
     1
102
RTVSPropertyOp4
 70
     1
102
RTVSPropertyOp5
 70
     1
102
RTVSPropertyOp6
 70
     1
102
RTVSPropertyOp7
 70
     1
102
RTVSPropertyOp8
 70
     1
102
RTVSPropertyOp9
 70
     1
102
RTVSPropertyOp10
 70
     1
102
RTVSPropertyOp11
 70
     1
102
RTVSPropertyOp12
 70
     1
102
RTVSPropertyOp13
 70
     1
102
RTVSPropertyOp14
 70
     1
102
RTVSPropertyOp15
 70
     1
102
RTVSPropertyOp16
 70
     1
102
RTVSPropertyOp17
 70
     1
102
RTVSPropertyOp18
 70
     1
102
RTVSPropertyOp19
 70
     1
102
RTVSPropertyOp20
 70
     1
102
RTVSPropertyOp21
 70
     1
102
RTVSPropertyOp22
 70
     1
102
RTVSPropertyOp23
 70
     1
102
RTVSPropertyOp24
 70
     1
102
RTVSPropertyOp25
 70
     1
102
RTVSPropertyOp26
 70
     1
102
RTVSPropertyOp27
 70
     1
102
RTVSPropertyOp28
 70
     1
102
RTVSPropertyOp29
 70
     1
102
RTVSPropertyOp30
 70
     1
102
RTVSPropertyOp31
 70
     1
102
RTVSPropertyOp32
 70
     1
  0
XRECORD
  5
69F8
102
{ACAD_REACTORS
330
69F7
102
}
330
69F7
100
AcDbXrecord
280
     1
102
RTVSPropertyOp0
 70
     1
102
RTVSPropertyOp1
 70
     1
102
RTVSPropertyOp2
 70
     1
102
RTVSPropertyOp3
 70
     1
102
RTVSPropertyOp4
 70
     1
102
RTVSPropertyOp5
 70
     1
102
RTVSPropertyOp6
 70
     1
102
RTVSPropertyOp7
 70
     1
102
RTVSPropertyOp8
 70
     1
102
RTVSPropertyOp9
 70
     1
102
RTVSPropertyOp10
 70
     1
102
RTVSPropertyOp11
 70
     1
102
RTVSPropertyOp12
 70
     1
102
RTVSPropertyOp13
 70
     1
102
RTVSPropertyOp14
 70
     1
102
RTVSPropertyOp15
 70
     1
102
RTVSPropertyOp16
 70
     1
102
RTVSPropertyOp17
 70
     1
102
RTVSPropertyOp18
 70
     1
102
RTVSPropertyOp19
 70
     1
102
RTVSPropertyOp20
 70
     1
102
RTVSPropertyOp21
 70
     1
102
RTVSPropertyOp22
 70
     1
102
RTVSPropertyOp23
 70
     1
102
RTVSPropertyOp24
 70
     1
102
RTVSPropertyOp25
 70
     1
102
RTVSPropertyOp26
 70
     1
102
RTVSPropertyOp27
 70
     1
102
RTVSPropertyOp28
 70
     1
102
RTVSPropertyOp29
 70
     1
102
RTVSPropertyOp30
 70
     1
102
RTVSPropertyOp31
 70
     1
102
RTVSPropertyOp32
 70
     1
  0
XRECORD
  5
6A00
102
{ACAD_REACTORS
330
69FF
102
}
330
69FF
100
AcDbXrecord
280
     1
102
RTVSPropertyOp0
 70
     1
102
RTVSPropertyOp1
 70
     1
102
RTVSPropertyOp2
 70
     1
102
RTVSPropertyOp3
 70
     1
102
RTVSPropertyOp4
 70
     1
102
RTVSPropertyOp5
 70
     1
102
RTVSPropertyOp6
 70
     1
102
RTVSPropertyOp7
 70
     1
102
RTVSPropertyOp8
 70
     1
102
RTVSPropertyOp9
 70
     1
102
RTVSPropertyOp10
 70
     1
102
RTVSPropertyOp11
 70
     1
102
RTVSPropertyOp12
 70
     1
102
RTVSPropertyOp13
 70
     1
102
RTVSPropertyOp14
 70
     1
102
RTVSPropertyOp15
 70
     1
102
RTVSPropertyOp16
 70
     1
102
RTVSPropertyOp17
 70
     1
102
RTVSPropertyOp18
 70
     1
102
RTVSPropertyOp19
 70
     1
102
RTVSPropertyOp20
 70
     1
102
RTVSPropertyOp21
 70
     1
102
RTVSPropertyOp22
 70
     1
102
RTVSPropertyOp23
 70
     1
102
RTVSPropertyOp24
 70
     1
102
RTVSPropertyOp25
 70
     1
102
RTVSPropertyOp26
 70
     1
102
RTVSPropertyOp27
 70
     1
102
RTVSPropertyOp28
 70
     1
102
RTVSPropertyOp29
 70
     1
102
RTVSPropertyOp30
 70
     1
102
RTVSPropertyOp31
 70
     1
102
RTVSPropertyOp32
 70
     1
  0
XRECORD
  5
69F2
102
{ACAD_REACTORS
330
69F1
102
}
330
69F1
100
AcDbXrecord
280
     1
102
RTVSPropertyOp0
 70
     1
102
RTVSPropertyOp1
 70
     1
102
RTVSPropertyOp2
 70
     1
102
RTVSPropertyOp3
 70
     1
102
RTVSPropertyOp4
 70
     1
102
RTVSPropertyOp5
 70
     1
102
RTVSPropertyOp6
 70
     1
102
RTVSPropertyOp7
 70
     1
102
RTVSPropertyOp8
 70
     1
102
RTVSPropertyOp9
 70
     1
102
RTVSPropertyOp10
 70
     1
102
RTVSPropertyOp11
 70
     1
102
RTVSPropertyOp12
 70
     1
102
RTVSPropertyOp13
 70
     1
102
RTVSPropertyOp14
 70
     1
102
RTVSPropertyOp15
 70
     1
102
RTVSPropertyOp16
 70
     1
102
RTVSPropertyOp17
 70
     1
102
RTVSPropertyOp18
 70
     1
102
RTVSPropertyOp19
 70
     1
102
RTVSPropertyOp20
 70
     1
102
RTVSPropertyOp21
 70
     1
102
RTVSPropertyOp22
 70
     1
102
RTVSPropertyOp23
 70
     1
102
RTVSPropertyOp24
 70
     1
102
RTVSPropertyOp25
 70
     1
102
RTVSPropertyOp26
 70
     1
102
RTVSPropertyOp27
 70
     1
102
RTVSPropertyOp28
 70
     1
102
RTVSPropertyOp29
 70
     1
102
RTVSPropertyOp30
 70
     1
102
RTVSPropertyOp31
 70
     1
102
RTVSPropertyOp32
 70
     1
  0
XRECORD
  5
69F6
102
{ACAD_REACTORS
330
69F5
102
}
330
69F5
100
AcDbXrecord
280
     1
102
RTVSPropertyOp0
 70
     1
102
RTVSPropertyOp1
 70
     1
102
RTVSPropertyOp2
 70
     1
102
RTVSPropertyOp3
 70
     1
102
RTVSPropertyOp4
 70
     1
102
RTVSPropertyOp5
 70
     1
102
RTVSPropertyOp6
 70
     1
102
RTVSPropertyOp7
 70
     1
102
RTVSPropertyOp8
 70
     1
102
RTVSPropertyOp9
 70
     1
102
RTVSPropertyOp10
 70
     1
102
RTVSPropertyOp11
 70
     1
102
RTVSPropertyOp12
 70
     1
102
RTVSPropertyOp13
 70
     1
102
RTVSPropertyOp14
 70
     1
102
RTVSPropertyOp15
 70
     1
102
RTVSPropertyOp16
 70
     1
102
RTVSPropertyOp17
 70
     1
102
RTVSPropertyOp18
 70
     1
102
RTVSPropertyOp19
 70
     1
102
RTVSPropertyOp20
 70
     1
102
RTVSPropertyOp21
 70
     1
102
RTVSPropertyOp22
 70
     1
102
RTVSPropertyOp23
 70
     1
102
RTVSPropertyOp24
 70
     1
102
RTVSPropertyOp25
 70
     1
102
RTVSPropertyOp26
 70
     1
102
RTVSPropertyOp27
 70
     1
102
RTVSPropertyOp28
 70
     1
102
RTVSPropertyOp29
 70
     1
102
RTVSPropertyOp30
 70
     1
102
RTVSPropertyOp31
 70
     1
102
RTVSPropertyOp32
 70
     1
  0
XRECORD
  5
6A10
102
{ACAD_REACTORS
330
6A0F
102
}
330
6A0F
100
AcDbXrecord
280
     1
102
RTVSPropertyOp0
 70
     0
102
RTVSPropertyOp1
 70
     0
102
RTVSPropertyOp2
 70
     0
102
RTVSPropertyOp3
 70
     0
102
RTVSPropertyOp4
 70
     0
102
RTVSPropertyOp5
 70
     0
102
RTVSPropertyOp6
 70
     0
102
RTVSPropertyOp7
 70
     0
102
RTVSPropertyOp8
 70
     0
102
RTVSPropertyOp9
 70
     0
102
RTVSPropertyOp10
 70
     0
102
RTVSPropertyOp11
 70
     0
102
RTVSPropertyOp12
 70
     0
102
RTVSPropertyOp13
 70
     0
102
RTVSPropertyOp14
 70
     2
102
RTVSPropertyOp15
 70
     0
102
RTVSPropertyOp16
 70
     0
102
RTVSPropertyOp17
 70
     0
102
RTVSPropertyOp18
 70
     0
102
RTVSPropertyOp19
 70
     0
102
RTVSPropertyOp20
 70
     0
102
RTVSPropertyOp21
 70
     0
102
RTVSPropertyOp22
 70
     0
102
RTVSPropertyOp23
 70
     0
102
RTVSPropertyOp24
 70
     0
102
RTVSPropertyOp25
 70
     0
102
RTVSPropertyOp26
 70
     0
102
RTVSPropertyOp27
 70
     0
102
RTVSPropertyOp28
 70
     1
102
RTVSPropertyOp29
 70
     1
102
RTVSPropertyOp30
 70
     1
102
RTVSPropertyOp31
 70
     1
102
RTVSPropertyOp32
 70
     1
  0
XRECORD
  5
69FE
102
{ACAD_REACTORS
330
69FD
102
}
330
69FD
100
AcDbXrecord
280
     1
102
RTVSPropertyOp0
 70
     1
102
RTVSPropertyOp1
 70
     1
102
RTVSPropertyOp2
 70
     1
102
RTVSPropertyOp3
 70
     1
102
RTVSPropertyOp4
 70
     1
102
RTVSPropertyOp5
 70
     1
102
RTVSPropertyOp6
 70
     1
102
RTVSPropertyOp7
 70
     1
102
RTVSPropertyOp8
 70
     1
102
RTVSPropertyOp9
 70
     1
102
RTVSPropertyOp10
 70
     1
102
RTVSPropertyOp11
 70
     1
102
RTVSPropertyOp12
 70
     1
102
RTVSPropertyOp13
 70
     1
102
RTVSPropertyOp14
 70
     1
102
RTVSPropertyOp15
 70
     1
102
RTVSPropertyOp16
 70
     1
102
RTVSPropertyOp17
 70
     1
102
RTVSPropertyOp18
 70
     1
102
RTVSPropertyOp19
 70
     1
102
RTVSPropertyOp20
 70
     1
102
RTVSPropertyOp21
 70
     1
102
RTVSPropertyOp22
 70
     1
102
RTVSPropertyOp23
 70
     1
102
RTVSPropertyOp24
 70
     1
102
RTVSPropertyOp25
 70
     1
102
RTVSPropertyOp26
 70
     1
102
RTVSPropertyOp27
 70
     1
102
RTVSPropertyOp28
 70
     1
102
RTVSPropertyOp29
 70
     1
102
RTVSPropertyOp30
 70
     1
102
RTVSPropertyOp31
 70
     1
102
RTVSPropertyOp32
 70
     1
  0
XRECORD
  5
69E2
102
{ACAD_REACTORS
330
69E1
102
}
330
69E1
100
AcDbXrecord
280
     1
102
RTVSPropertyOp0
 70
     1
102
RTVSPropertyOp1
 70
     1
102
RTVSPropertyOp2
 70
     1
102
RTVSPropertyOp3
 70
     1
102
RTVSPropertyOp4
 70
     1
102
RTVSPropertyOp5
 70
     1
102
RTVSPropertyOp6
 70
     1
102
RTVSPropertyOp7
 70
     1
102
RTVSPropertyOp8
 70
     1
102
RTVSPropertyOp9
 70
     1
102
RTVSPropertyOp10
 70
     1
102
RTVSPropertyOp11
 70
     1
102
RTVSPropertyOp12
 70
     1
102
RTVSPropertyOp13
 70
     1
102
RTVSPropertyOp14
 70
     1
102
RTVSPropertyOp15
 70
     1
102
RTVSPropertyOp16
 70
     1
102
RTVSPropertyOp17
 70
     1
102
RTVSPropertyOp18
 70
     1
102
RTVSPropertyOp19
 70
     1
102
RTVSPropertyOp20
 70
     1
102
RTVSPropertyOp21
 70
     1
102
RTVSPropertyOp22
 70
     1
102
RTVSPropertyOp23
 70
     1
102
RTVSPropertyOp24
 70
     1
102
RTVSPropertyOp25
 70
     1
102
RTVSPropertyOp26
 70
     1
102
RTVSPropertyOp27
 70
     1
102
RTVSPropertyOp28
 70
     1
102
RTVSPropertyOp29
 70
     1
102
RTVSPropertyOp30
 70
     1
102
RTVSPropertyOp31
 70
     1
102
RTVSPropertyOp32
 70
     1
  0
XRECORD
  5
69E4
102
{ACAD_REACTORS
330
69E3
102
}
330
69E3
100
AcDbXrecord
280
     1
102
RTVSPropertyOp0
 70
     1
102
RTVSPropertyOp1
 70
     1
102
RTVSPropertyOp2
 70
     1
102
RTVSPropertyOp3
 70
     1
102
RTVSPropertyOp4
 70
     1
102
RTVSPropertyOp5
 70
     1
102
RTVSPropertyOp6
 70
     1
102
RTVSPropertyOp7
 70
     1
102
RTVSPropertyOp8
 70
     1
102
RTVSPropertyOp9
 70
     1
102
RTVSPropertyOp10
 70
     1
102
RTVSPropertyOp11
 70
     1
102
RTVSPropertyOp12
 70
     1
102
RTVSPropertyOp13
 70
     1
102
RTVSPropertyOp14
 70
     1
102
RTVSPropertyOp15
 70
     1
102
RTVSPropertyOp16
 70
     1
102
RTVSPropertyOp17
 70
     1
102
RTVSPropertyOp18
 70
     1
102
RTVSPropertyOp19
 70
     1
102
RTVSPropertyOp20
 70
     1
102
RTVSPropertyOp21
 70
     1
102
RTVSPropertyOp22
 70
     1
102
RTVSPropertyOp23
 70
     1
102
RTVSPropertyOp24
 70
     1
102
RTVSPropertyOp25
 70
     1
102
RTVSPropertyOp26
 70
     1
102
RTVSPropertyOp27
 70
     1
102
RTVSPropertyOp28
 70
     1
102
RTVSPropertyOp29
 70
     1
102
RTVSPropertyOp30
 70
     1
102
RTVSPropertyOp31
 70
     1
102
RTVSPropertyOp32
 70
     1
  0
XRECORD
  5
69E6
102
{ACAD_REACTORS
330
69E5
102
}
330
69E5
100
AcDbXrecord
280
     1
102
RTVSPropertyOp0
 70
     1
102
RTVSPropertyOp1
 70
     1
102
RTVSPropertyOp2
 70
     1
102
RTVSPropertyOp3
 70
     1
102
RTVSPropertyOp4
 70
     1
102
RTVSPropertyOp5
 70
     1
102
RTVSPropertyOp6
 70
     1
102
RTVSPropertyOp7
 70
     1
102
RTVSPropertyOp8
 70
     1
102
RTVSPropertyOp9
 70
     1
102
RTVSPropertyOp10
 70
     1
102
RTVSPropertyOp11
 70
     1
102
RTVSPropertyOp12
 70
     1
102
RTVSPropertyOp13
 70
     1
102
RTVSPropertyOp14
 70
     1
102
RTVSPropertyOp15
 70
     1
102
RTVSPropertyOp16
 70
     1
102
RTVSPropertyOp17
 70
     1
102
RTVSPropertyOp18
 70
     1
102
RTVSPropertyOp19
 70
     1
102
RTVSPropertyOp20
 70
     1
102
RTVSPropertyOp21
 70
     1
102
RTVSPropertyOp22
 70
     1
102
RTVSPropertyOp23
 70
     1
102
RTVSPropertyOp24
 70
     1
102
RTVSPropertyOp25
 70
     1
102
RTVSPropertyOp26
 70
     1
102
RTVSPropertyOp27
 70
     1
102
RTVSPropertyOp28
 70
     1
102
RTVSPropertyOp29
 70
     1
102
RTVSPropertyOp30
 70
     1
102
RTVSPropertyOp31
 70
     1
102
RTVSPropertyOp32
 70
     1
  0
XRECORD
  5
69E8
102
{ACAD_REACTORS
330
69E7
102
}
330
69E7
100
AcDbXrecord
280
     1
102
RTVSPropertyOp0
 70
     1
102
RTVSPropertyOp1
 70
     1
102
RTVSPropertyOp2
 70
     1
102
RTVSPropertyOp3
 70
     1
102
RTVSPropertyOp4
 70
     1
102
RTVSPropertyOp5
 70
     1
102
RTVSPropertyOp6
 70
     1
102
RTVSPropertyOp7
 70
     1
102
RTVSPropertyOp8
 70
     1
102
RTVSPropertyOp9
 70
     1
102
RTVSPropertyOp10
 70
     1
102
RTVSPropertyOp11
 70
     1
102
RTVSPropertyOp12
 70
     1
102
RTVSPropertyOp13
 70
     1
102
RTVSPropertyOp14
 70
     1
102
RTVSPropertyOp15
 70
     1
102
RTVSPropertyOp16
 70
     1
102
RTVSPropertyOp17
 70
     1
102
RTVSPropertyOp18
 70
     1
102
RTVSPropertyOp19
 70
     1
102
RTVSPropertyOp20
 70
     1
102
RTVSPropertyOp21
 70
     1
102
RTVSPropertyOp22
 70
     1
102
RTVSPropertyOp23
 70
     1
102
RTVSPropertyOp24
 70
     1
102
RTVSPropertyOp25
 70
     1
102
RTVSPropertyOp26
 70
     1
102
RTVSPropertyOp27
 70
     1
102
RTVSPropertyOp28
 70
     1
102
RTVSPropertyOp29
 70
     1
102
RTVSPropertyOp30
 70
     1
102
RTVSPropertyOp31
 70
     1
102
RTVSPropertyOp32
 70
     1
  0
XRECORD
  5
69F0
102
{ACAD_REACTORS
330
69EF
102
}
330
69EF
100
AcDbXrecord
280
     1
102
RTVSPropertyOp0
 70
     1
102
RTVSPropertyOp1
 70
     1
102
RTVSPropertyOp2
 70
     1
102
RTVSPropertyOp3
 70
     1
102
RTVSPropertyOp4
 70
     1
102
RTVSPropertyOp5
 70
     1
102
RTVSPropertyOp6
 70
     1
102
RTVSPropertyOp7
 70
     1
102
RTVSPropertyOp8
 70
     1
102
RTVSPropertyOp9
 70
     1
102
RTVSPropertyOp10
 70
     1
102
RTVSPropertyOp11
 70
     1
102
RTVSPropertyOp12
 70
     1
102
RTVSPropertyOp13
 70
     1
102
RTVSPropertyOp14
 70
     1
102
RTVSPropertyOp15
 70
     1
102
RTVSPropertyOp16
 70
     1
102
RTVSPropertyOp17
 70
     1
102
RTVSPropertyOp18
 70
     1
102
RTVSPropertyOp19
 70
     1
102
RTVSPropertyOp20
 70
     1
102
RTVSPropertyOp21
 70
     1
102
RTVSPropertyOp22
 70
     1
102
RTVSPropertyOp23
 70
     1
102
RTVSPropertyOp24
 70
     1
102
RTVSPropertyOp25
 70
     1
102
RTVSPropertyOp26
 70
     1
102
RTVSPropertyOp27
 70
     1
102
RTVSPropertyOp28
 70
     1
102
RTVSPropertyOp29
 70
     1
102
RTVSPropertyOp30
 70
     1
102
RTVSPropertyOp31
 70
     1
102
RTVSPropertyOp32
 70
     1
  0
XRECORD
  5
6A0C
102
{ACAD_REACTORS
330
6A0B
102
}
330
6A0B
100
AcDbXrecord
280
     1
102
RTVSPropertyOp0
 70
     0
102
RTVSPropertyOp1
 70
     0
102
RTVSPropertyOp2
 70
     0
102
RTVSPropertyOp3
 70
     0
102
RTVSPropertyOp4
 70
     0
102
RTVSPropertyOp5
 70
     0
102
RTVSPropertyOp6
 70
     0
102
RTVSPropertyOp7
 70
     0
102
RTVSPropertyOp8
 70
     0
102
RTVSPropertyOp9
 70
     0
102
RTVSPropertyOp10
 70
     0
102
RTVSPropertyOp11
 70
     0
102
RTVSPropertyOp12
 70
     0
102
RTVSPropertyOp13
 70
     0
102
RTVSPropertyOp14
 70
     2
102
RTVSPropertyOp15
 70
     0
102
RTVSPropertyOp16
 70
     0
102
RTVSPropertyOp17
 70
     0
102
RTVSPropertyOp18
 70
     0
102
RTVSPropertyOp19
 70
     0
102
RTVSPropertyOp20
 70
     0
102
RTVSPropertyOp21
 70
     0
102
RTVSPropertyOp22
 70
     0
102
RTVSPropertyOp23
 70
     0
102
RTVSPropertyOp24
 70
     0
102
RTVSPropertyOp25
 70
     0
102
RTVSPropertyOp26
 70
     0
102
RTVSPropertyOp27
 70
     0
102
RTVSPropertyOp28
 70
     1
102
RTVSPropertyOp29
 70
     1
102
RTVSPropertyOp30
 70
     1
102
RTVSPropertyOp31
 70
     1
102
RTVSPropertyOp32
 70
     1
  0
XRECORD
  5
69FC
102
{ACAD_REACTORS
330
69FB
102
}
330
69FB
100
AcDbXrecord
280
     1
102
RTVSPropertyOp0
 70
     1
102
RTVSPropertyOp1
 70
     1
102
RTVSPropertyOp2
 70
     1
102
RTVSPropertyOp3
 70
     1
102
RTVSPropertyOp4
 70
     1
102
RTVSPropertyOp5
 70
     1
102
RTVSPropertyOp6
 70
     1
102
RTVSPropertyOp7
 70
     1
102
RTVSPropertyOp8
 70
     1
102
RTVSPropertyOp9
 70
     1
102
RTVSPropertyOp10
 70
     1
102
RTVSPropertyOp11
 70
     1
102
RTVSPropertyOp12
 70
     1
102
RTVSPropertyOp13
 70
     1
102
RTVSPropertyOp14
 70
     1
102
RTVSPropertyOp15
 70
     1
102
RTVSPropertyOp16
 70
     1
102
RTVSPropertyOp17
 70
     1
102
RTVSPropertyOp18
 70
     1
102
RTVSPropertyOp19
 70
     1
102
RTVSPropertyOp20
 70
     1
102
RTVSPropertyOp21
 70
     1
102
RTVSPropertyOp22
 70
     1
102
RTVSPropertyOp23
 70
     1
102
RTVSPropertyOp24
 70
     1
102
RTVSPropertyOp25
 70
     1
102
RTVSPropertyOp26
 70
     1
102
RTVSPropertyOp27
 70
     1
102
RTVSPropertyOp28
 70
     1
102
RTVSPropertyOp29
 70
     1
102
RTVSPropertyOp30
 70
     1
102
RTVSPropertyOp31
 70
     1
102
RTVSPropertyOp32
 70
     1
  0
XRECORD
  5
6A0E
102
{ACAD_REACTORS
330
6A0D
102
}
330
6A0D
100
AcDbXrecord
280
     1
102
RTVSPropertyOp0
 70
     0
102
RTVSPropertyOp1
 70
     0
102
RTVSPropertyOp2
 70
     0
102
RTVSPropertyOp3
 70
     0
102
RTVSPropertyOp4
 70
     0
102
RTVSPropertyOp5
 70
     0
102
RTVSPropertyOp6
 70
     0
102
RTVSPropertyOp7
 70
     0
102
RTVSPropertyOp8
 70
     0
102
RTVSPropertyOp9
 70
     0
102
RTVSPropertyOp10
 70
     0
102
RTVSPropertyOp11
 70
     0
102
RTVSPropertyOp12
 70
     0
102
RTVSPropertyOp13
 70
     0
102
RTVSPropertyOp14
 70
     2
102
RTVSPropertyOp15
 70
     0
102
RTVSPropertyOp16
 70
     0
102
RTVSPropertyOp17
 70
     0
102
RTVSPropertyOp18
 70
     0
102
RTVSPropertyOp19
 70
     0
102
RTVSPropertyOp20
 70
     0
102
RTVSPropertyOp21
 70
     0
102
RTVSPropertyOp22
 70
     0
102
RTVSPropertyOp23
 70
     0
102
RTVSPropertyOp24
 70
     0
102
RTVSPropertyOp25
 70
     0
102
RTVSPropertyOp26
 70
     0
102
RTVSPropertyOp27
 70
     0
102
RTVSPropertyOp28
 70
     1
102
RTVSPropertyOp29
 70
     1
102
RTVSPropertyOp30
 70
     1
102
RTVSPropertyOp31
 70
     1
102
RTVSPropertyOp32
 70
     1
  0
XRECORD
  5
69F4
102
{ACAD_REACTORS
330
69F3
102
}
330
69F3
100
AcDbXrecord
280
     1
102
RTVSPropertyOp0
 70
     1
102
RTVSPropertyOp1
 70
     1
102
RTVSPropertyOp2
 70
     1
102
RTVSPropertyOp3
 70
     1
102
RTVSPropertyOp4
 70
     1
102
RTVSPropertyOp5
 70
     1
102
RTVSPropertyOp6
 70
     1
102
RTVSPropertyOp7
 70
     1
102
RTVSPropertyOp8
 70
     1
102
RTVSPropertyOp9
 70
     1
102
RTVSPropertyOp10
 70
     1
102
RTVSPropertyOp11
 70
     1
102
RTVSPropertyOp12
 70
     1
102
RTVSPropertyOp13
 70
     1
102
RTVSPropertyOp14
 70
     1
102
RTVSPropertyOp15
 70
     1
102
RTVSPropertyOp16
 70
     1
102
RTVSPropertyOp17
 70
     1
102
RTVSPropertyOp18
 70
     1
102
RTVSPropertyOp19
 70
     1
102
RTVSPropertyOp20
 70
     1
102
RTVSPropertyOp21
 70
     1
102
RTVSPropertyOp22
 70
     1
102
RTVSPropertyOp23
 70
     1
102
RTVSPropertyOp24
 70
     1
102
RTVSPropertyOp25
 70
     1
102
RTVSPropertyOp26
 70
     1
102
RTVSPropertyOp27
 70
     1
102
RTVSPropertyOp28
 70
     1
102
RTVSPropertyOp29
 70
     1
102
RTVSPropertyOp30
 70
     1
102
RTVSPropertyOp31
 70
     1
102
RTVSPropertyOp32
 70
     1
  0
XRECORD
  5
6A0A
102
{ACAD_REACTORS
330
6A09
102
}
330
6A09
100
AcDbXrecord
280
     1
102
RTVSPropertyOp0
 70
     1
102
RTVSPropertyOp1
 70
     1
102
RTVSPropertyOp2
 70
     1
102
RTVSPropertyOp3
 70
     1
102
RTVSPropertyOp4
 70
     1
102
RTVSPropertyOp5
 70
     1
102
RTVSPropertyOp6
 70
     1
102
RTVSPropertyOp7
 70
     1
102
RTVSPropertyOp8
 70
     1
102
RTVSPropertyOp9
 70
     1
102
RTVSPropertyOp10
 70
     1
102
RTVSPropertyOp11
 70
     1
102
RTVSPropertyOp12
 70
     1
102
RTVSPropertyOp13
 70
     1
102
RTVSPropertyOp14
 70
     1
102
RTVSPropertyOp15
 70
     1
102
RTVSPropertyOp16
 70
     1
102
RTVSPropertyOp17
 70
     1
102
RTVSPropertyOp18
 70
     1
102
RTVSPropertyOp19
 70
     1
102
RTVSPropertyOp20
 70
     1
102
RTVSPropertyOp21
 70
     1
102
RTVSPropertyOp22
 70
     1
102
RTVSPropertyOp23
 70
     1
102
RTVSPropertyOp24
 70
     1
102
RTVSPropertyOp25
 70
     1
102
RTVSPropertyOp26
 70
     1
102
RTVSPropertyOp27
 70
     1
102
RTVSPropertyOp28
 70
     1
102
RTVSPropertyOp29
 70
     1
102
RTVSPropertyOp30
 70
     1
102
RTVSPropertyOp31
 70
     1
102
RTVSPropertyOp32
 70
     1
  0
XRECORD
  5
6A08
102
{ACAD_REACTORS
330
6A07
102
}
330
6A07
100
AcDbXrecord
280
     1
102
RTVSPropertyOp0
 70
     1
102
RTVSPropertyOp1
 70
     1
102
RTVSPropertyOp2
 70
     1
102
RTVSPropertyOp3
 70
     1
102
RTVSPropertyOp4
 70
     1
102
RTVSPropertyOp5
 70
     1
102
RTVSPropertyOp6
 70
     1
102
RTVSPropertyOp7
 70
     1
102
RTVSPropertyOp8
 70
     1
102
RTVSPropertyOp9
 70
     1
102
RTVSPropertyOp10
 70
     1
102
RTVSPropertyOp11
 70
     1
102
RTVSPropertyOp12
 70
     1
102
RTVSPropertyOp13
 70
     1
102
RTVSPropertyOp14
 70
     1
102
RTVSPropertyOp15
 70
     1
102
RTVSPropertyOp16
 70
     1
102
RTVSPropertyOp17
 70
     1
102
RTVSPropertyOp18
 70
     1
102
RTVSPropertyOp19
 70
     1
102
RTVSPropertyOp20
 70
     1
102
RTVSPropertyOp21
 70
     1
102
RTVSPropertyOp22
 70
     1
102
RTVSPropertyOp23
 70
     1
102
RTVSPropertyOp24
 70
     1
102
RTVSPropertyOp25
 70
     1
102
RTVSPropertyOp26
 70
     1
102
RTVSPropertyOp27
 70
     1
102
RTVSPropertyOp28
 70
     1
102
RTVSPropertyOp29
 70
     1
102
RTVSPropertyOp30
 70
     1
102
RTVSPropertyOp31
 70
     1
102
RTVSPropertyOp32
 70
     1
  0
XRECORD
  5
6A02
102
{ACAD_REACTORS
330
6A01
102
}
330
6A01
100
AcDbXrecord
280
     1
102
RTVSPropertyOp0
 70
     1
102
RTVSPropertyOp1
 70
     1
102
RTVSPropertyOp2
 70
     1
102
RTVSPropertyOp3
 70
     1
102
RTVSPropertyOp4
 70
     1
102
RTVSPropertyOp5
 70
     1
102
RTVSPropertyOp6
 70
     1
102
RTVSPropertyOp7
 70
     1
102
RTVSPropertyOp8
 70
     1
102
RTVSPropertyOp9
 70
     1
102
RTVSPropertyOp10
 70
     1
102
RTVSPropertyOp11
 70
     1
102
RTVSPropertyOp12
 70
     1
102
RTVSPropertyOp13
 70
     1
102
RTVSPropertyOp14
 70
     1
102
RTVSPropertyOp15
 70
     1
102
RTVSPropertyOp16
 70
     1
102
RTVSPropertyOp17
 70
     1
102
RTVSPropertyOp18
 70
     1
102
RTVSPropertyOp19
 70
     1
102
RTVSPropertyOp20
 70
     1
102
RTVSPropertyOp21
 70
     1
102
RTVSPropertyOp22
 70
     1
102
RTVSPropertyOp23
 70
     1
102
RTVSPropertyOp24
 70
     1
102
RTVSPropertyOp25
 70
     1
102
RTVSPropertyOp26
 70
     1
102
RTVSPropertyOp27
 70
     1
102
RTVSPropertyOp28
 70
     1
102
RTVSPropertyOp29
 70
     1
102
RTVSPropertyOp30
 70
     1
102
RTVSPropertyOp31
 70
     1
102
RTVSPropertyOp32
 70
     1
  0
XRECORD
  5
6A04
102
{ACAD_REACTORS
330
6A03
102
}
330
6A03
100
AcDbXrecord
280
     1
102
RTVSPropertyOp0
 70
     1
102
RTVSPropertyOp1
 70
     1
102
RTVSPropertyOp2
 70
     1
102
RTVSPropertyOp3
 70
     1
102
RTVSPropertyOp4
 70
     1
102
RTVSPropertyOp5
 70
     1
102
RTVSPropertyOp6
 70
     1
102
RTVSPropertyOp7
 70
     1
102
RTVSPropertyOp8
 70
     1
102
RTVSPropertyOp9
 70
     1
102
RTVSPropertyOp10
 70
     1
102
RTVSPropertyOp11
 70
     1
102
RTVSPropertyOp12
 70
     1
102
RTVSPropertyOp13
 70
     1
102
RTVSPropertyOp14
 70
     1
102
RTVSPropertyOp15
 70
     1
102
RTVSPropertyOp16
 70
     1
102
RTVSPropertyOp17
 70
     1
102
RTVSPropertyOp18
 70
     1
102
RTVSPropertyOp19
 70
     1
102
RTVSPropertyOp20
 70
     1
102
RTVSPropertyOp21
 70
     1
102
RTVSPropertyOp22
 70
     1
102
RTVSPropertyOp23
 70
     1
102
RTVSPropertyOp24
 70
     1
102
RTVSPropertyOp25
 70
     1
102
RTVSPropertyOp26
 70
     1
102
RTVSPropertyOp27
 70
     1
102
RTVSPropertyOp28
 70
     1
102
RTVSPropertyOp29
 70
     1
102
RTVSPropertyOp30
 70
     1
102
RTVSPropertyOp31
 70
     1
102
RTVSPropertyOp32
 70
     1
  0
XRECORD
  5
69FA
102
{ACAD_REACTORS
330
69F9
102
}
330
69F9
100
AcDbXrecord
280
     1
102
RTVSPropertyOp0
 70
     1
102
RTVSPropertyOp1
 70
     1
102
RTVSPropertyOp2
 70
     1
102
RTVSPropertyOp3
 70
     1
102
RTVSPropertyOp4
 70
     1
102
RTVSPropertyOp5
 70
     1
102
RTVSPropertyOp6
 70
     1
102
RTVSPropertyOp7
 70
     1
102
RTVSPropertyOp8
 70
     1
102
RTVSPropertyOp9
 70
     1
102
RTVSPropertyOp10
 70
     1
102
RTVSPropertyOp11
 70
     1
102
RTVSPropertyOp12
 70
     1
102
RTVSPropertyOp13
 70
     1
102
RTVSPropertyOp14
 70
     1
102
RTVSPropertyOp15
 70
     1
102
RTVSPropertyOp16
 70
     1
102
RTVSPropertyOp17
 70
     1
102
RTVSPropertyOp18
 70
     1
102
RTVSPropertyOp19
 70
     1
102
RTVSPropertyOp20
 70
     1
102
RTVSPropertyOp21
 70
     1
102
RTVSPropertyOp22
 70
     1
102
RTVSPropertyOp23
 70
     1
102
RTVSPropertyOp24
 70
     1
102
RTVSPropertyOp25
 70
     1
102
RTVSPropertyOp26
 70
     1
102
RTVSPropertyOp27
 70
     1
102
RTVSPropertyOp28
 70
     1
102
RTVSPropertyOp29
 70
     1
102
RTVSPropertyOp30
 70
     1
102
RTVSPropertyOp31
 70
     1
102
RTVSPropertyOp32
 70
     1
  0
XRECORD
  5
69EE
102
{ACAD_REACTORS
330
69ED
102
}
330
69ED
100
AcDbXrecord
280
     1
102
RTVSPropertyOp0
 70
     1
102
RTVSPropertyOp1
 70
     1
102
RTVSPropertyOp2
 70
     1
102
RTVSPropertyOp3
 70
     1
102
RTVSPropertyOp4
 70
     1
102
RTVSPropertyOp5
 70
     1
102
RTVSPropertyOp6
 70
     1
102
RTVSPropertyOp7
 70
     1
102
RTVSPropertyOp8
 70
     1
102
RTVSPropertyOp9
 70
     1
102
RTVSPropertyOp10
 70
     1
102
RTVSPropertyOp11
 70
     1
102
RTVSPropertyOp12
 70
     1
102
RTVSPropertyOp13
 70
     1
102
RTVSPropertyOp14
 70
     1
102
RTVSPropertyOp15
 70
     1
102
RTVSPropertyOp16
 70
     1
102
RTVSPropertyOp17
 70
     1
102
RTVSPropertyOp18
 70
     1
102
RTVSPropertyOp19
 70
     1
102
RTVSPropertyOp20
 70
     1
102
RTVSPropertyOp21
 70
     1
102
RTVSPropertyOp22
 70
     1
102
RTVSPropertyOp23
 70
     1
102
RTVSPropertyOp24
 70
     1
102
RTVSPropertyOp25
 70
     1
102
RTVSPropertyOp26
 70
     1
102
RTVSPropertyOp27
 70
     1
102
RTVSPropertyOp28
 70
     1
102
RTVSPropertyOp29
 70
     1
102
RTVSPropertyOp30
 70
     1
102
RTVSPropertyOp31
 70
     1
102
RTVSPropertyOp32
 70
     1
  0
XRECORD
  5
6A06
102
{ACAD_REACTORS
330
6A05
102
}
330
6A05
100
AcDbXrecord
280
     1
102
RTVSPropertyOp0
 70
     1
102
RTVSPropertyOp1
 70
     1
102
RTVSPropertyOp2
 70
     1
102
RTVSPropertyOp3
 70
     1
102
RTVSPropertyOp4
 70
     1
102
RTVSPropertyOp5
 70
     1
102
RTVSPropertyOp6
 70
     1
102
RTVSPropertyOp7
 70
     1
102
RTVSPropertyOp8
 70
     1
102
RTVSPropertyOp9
 70
     1
102
RTVSPropertyOp10
 70
     1
102
RTVSPropertyOp11
 70
     1
102
RTVSPropertyOp12
 70
     1
102
RTVSPropertyOp13
 70
     1
102
RTVSPropertyOp14
 70
     1
102
RTVSPropertyOp15
 70
     1
102
RTVSPropertyOp16
 70
     1
102
RTVSPropertyOp17
 70
     1
102
RTVSPropertyOp18
 70
     1
102
RTVSPropertyOp19
 70
     1
102
RTVSPropertyOp20
 70
     1
102
RTVSPropertyOp21
 70
     1
102
RTVSPropertyOp22
 70
     1
102
RTVSPropertyOp23
 70
     1
102
RTVSPropertyOp24
 70
     1
102
RTVSPropertyOp25
 70
     1
102
RTVSPropertyOp26
 70
     1
102
RTVSPropertyOp27
 70
     1
102
RTVSPropertyOp28
 70
     1
102
RTVSPropertyOp29
 70
     1
102
RTVSPropertyOp30
 70
     1
102
RTVSPropertyOp31
 70
     1
102
RTVSPropertyOp32
 70
     1
  0
ENDSEC
  0
EOF
