  0
SECTION
  2
HEADER
  9
$ACADVER
  1
AC1015
  9
$ACADMAINTVER
 70
    20
  9
$DWGCODEPAGE
  3
ANSI_1252
  9
$INSBASE
 10
0.0
 20
0.0
 30
0.0
  9
$EXTMIN
 10
0.0
 20
0.0
 30
0.0
  9
$EXTMAX
 10
58.29491848745604
 20
36.62719792586603
 30
0.0
  9
$LIMMIN
 10
0.0
 20
0.0
  9
$LIMMAX
 10
12.0
 20
9.0
  9
$ORTHOMODE
 70
     0
  9
$REGENMODE
 70
     1
  9
$FILLMODE
 70
     1
  9
$QTEXTMODE
 70
     0
  9
$MIRRTEXT
 70
     1
  9
$LTSCALE
 40
0.5
  9
$ATTMODE
 70
     1
  9
$TEXTSIZE
 40
0.25
  9
$TRACEWID
 40
0.05
  9
$TEXTSTYLE
  7
STANDARD
  9
$CLAYER
  8
0
  9
$CELTYPE
  6
BYLAYER
  9
$CECOLOR
 62
   256
  9
$CELTSCALE
 40
1.0
  9
$DISPSILH
 70
     0
  9
$DIMSCALE
 40
1.0
  9
$DIMASZ
 40
0.2
  9
$DIMEXO
 40
0.125
  9
$DIMDLI
 40
0.375
  9
$DIMRND
 40
0.0
  9
$DIMDLE
 40
0.0
  9
$DIMEXE
 40
0.125
  9
$DIMTP
 40
0.0
  9
$DIMTM
 40
0.0
  9
$DIMTXT
 40
0.25
  9
$DIMCEN
 40
0.0
  9
$DIMTSZ
 40
0.0
  9
$DIMTOL
 70
     0
  9
$DIMLIM
 70
     0
  9
$DIMTIH
 70
     0
  9
$DIMTOH
 70
     0
  9
$DIMSE1
 70
     0
  9
$DIMSE2
 70
     0
  9
$DIMTAD
 70
     1
  9
$DIMZIN
 70
     3
  9
$DIMBLK
  1

  9
$DIMASO
 70
     1
  9
$DIMSHO
 70
     1
  9
$DIMPOST
  1

  9
$DIMAPOST
  1

  9
$DIMALT
 70
     0
  9
$DIMALTD
 70
     2
  9
$DIMALTF
 40
25.4
  9
$DIMLFAC
 40
1.0
  9
$DIMTOFL
 70
     0
  9
$DIMTVP
 40
0.0
  9
$DIMTIX
 70
     0
  9
$DIMSOXD
 70
     0
  9
$DIMSAH
 70
     0
  9
$DIMBLK1
  1

  9
$DIMBLK2
  1

  9
$DIMSTYLE
  2
STANDARD
  9
$DIMCLRD
 70
     0
  9
$DIMCLRE
 70
     0
  9
$DIMCLRT
 70
     0
  9
$DIMTFAC
 40
1.0
  9
$DIMGAP
 40
0.125
  9
$DIMJUST
 70
     0
  9
$DIMSD1
 70
     0
  9
$DIMSD2
 70
     0
  9
$DIMTOLJ
 70
     1
  9
$DIMTZIN
 70
     3
  9
$DIMALTZ
 70
     3
  9
$DIMALTTZ
 70
     3
  9
$DIMUPT
 70
     0
  9
$DIMDEC
 70
     5
  9
$DIMTDEC
 70
     5
  9
$DIMALTU
 70
     4
  9
$DIMALTTD
 70
     2
  9
$DIMTXSTY
  7
STANDARD
  9
$DIMAUNIT
 70
     0
  9
$DIMADEC
 70
     0
  9
$DIMALTRND
 40
0.0
  9
$DIMAZIN
 70
     0
  9
$DIMDSEP
 70
    46
  9
$DIMATFIT
 70
     0
  9
$DIMFRAC
 70
     2
  9
$DIMLDRBLK
  1

  9
$DIMLUNIT
 70
     4
  9
$DIMLWD
 70
    -2
  9
$DIMLWE
 70
    -2
  9
$DIMTMOVE
 70
     0
  9
$LUNITS
 70
     2
  9
$LUPREC
 70
     5
  9
$SKETCHINC
 40
0.1
  9
$FILLETRAD
 40
0.0
  9
$AUNITS
 70
     0
  9
$AUPREC
 70
     0
  9
$MENU
  1
ACAD
  9
$ELEVATION
 40
0.0
  9
$PELEVATION
 40
0.0
  9
$THICKNESS
 40
0.0
  9
$LIMCHECK
 70
     0
  9
$CHAMFERA
 40
0.0
  9
$CHAMFERB
 40
0.0
  9
$CHAMFERC
 40
0.0
  9
$CHAMFERD
 40
0.0
  9
$SKPOLY
 70
     0
  9
$TDCREATE
 40
2450777.537570949
  9
$TDUCREATE
 40
2450777.745904282
  9
$TDUPDATE
 40
2457809.454103472
  9
$TDUUPDATE
 40
2457809.662436806
  9
$TDINDWG
 40
0.5418687384
  9
$TDUSRTIMER
 40
0.5418687384
  9
$USRTIMER
 70
     1
  9
$ANGBASE
 50
0.0
  9
$ANGDIR
 70
     0
  9
$PDMODE
 70
     0
  9
$PDSIZE
 40
0.0
  9
$PLINEWID
 40
0.0
  9
$SPLFRAME
 70
     0
  9
$SPLINETYPE
 70
     6
  9
$SPLINESEGS
 70
     8
  9
$HANDSEED
  5
6ADD
  9
$SURFTAB1
 70
     6
  9
$SURFTAB2
 70
     6
  9
$SURFTYPE
 70
     6
  9
$SURFU
 70
     6
  9
$SURFV
 70
     6
  9
$UCSBASE
  2

  9
$UCSNAME
  2

  9
$UCSORG
 10
0.0
 20
0.0
 30
0.0
  9
$UCSXDIR
 10
1.0
 20
0.0
 30
0.0
  9
$UCSYDIR
 10
0.0
 20
1.0
 30
0.0
  9
$UCSORTHOREF
  2

  9
$UCSORTHOVIEW
 70
     0
  9
$UCSORGTOP
 10
0.0
 20
0.0
 30
0.0
  9
$UCSORGBOTTOM
 10
0.0
 20
0.0
 30
0.0
  9
$UCSORGLEFT
 10
0.0
 20
0.0
 30
0.0
  9
$UCSORGRIGHT
 10
0.0
 20
0.0
 30
0.0
  9
$UCSORGFRONT
 10
0.0
 20
0.0
 30
0.0
  9
$UCSORGBACK
 10
0.0
 20
0.0
 30
0.0
  9
$PUCSBASE
  2

  9
$PUCSNAME
  2

  9
$PUCSORG
 10
0.0
 20
0.0
 30
0.0
  9
$PUCSXDIR
 10
1.0
 20
0.0
 30
0.0
  9
$PUCSYDIR
 10
0.0
 20
1.0
 30
0.0
  9
$PUCSORTHOREF
  2

  9
$PUCSORTHOVIEW
 70
     0
  9
$PUCSORGTOP
 10
0.0
 20
0.0
 30
0.0
  9
$PUCSORGBOTTOM
 10
0.0
 20
0.0
 30
0.0
  9
$PUCSORGLEFT
 10
0.0
 20
0.0
 30
0.0
  9
$PUCSORGRIGHT
 10
0.0
 20
0.0
 30
0.0
  9
$PUCSORGFRONT
 10
0.0
 20
0.0
 30
0.0
  9
$PUCSORGBACK
 10
0.0
 20
0.0
 30
0.0
  9
$USERI1
 70
     0
  9
$USERI2
 70
     0
  9
$USERI3
 70
     0
  9
$USERI4
 70
     0
  9
$USERI5
 70
     0
  9
$USERR1
 40
0.0
  9
$USERR2
 40
0.0
  9
$USERR3
 40
0.0
  9
$USERR4
 40
0.0
  9
$USERR5
 40
0.0
  9
$WORLDVIEW
 70
     1
  9
$SHADEDGE
 70
     3
  9
$SHADEDIF
 70
    70
  9
$TILEMODE
 70
     1
  9
$MAXACTVP
 70
    16
  9
$PINSBASE
 10
0.0
 20
0.0
 30
0.0
  9
$PLIMCHECK
 70
     0
  9
$PEXTMIN
 10
1.000000000000000E+20
 20
1.000000000000000E+20
 30
1.000000000000000E+20
  9
$PEXTMAX
 10
-1.000000000000000E+20
 20
-1.000000000000000E+20
 30
-1.000000000000000E+20
  9
$PLIMMIN
 10
0.0
 20
0.0
  9
$PLIMMAX
 10
12.0
 20
9.0
  9
$UNITMODE
 70
     0
  9
$VISRETAIN
 70
     0
  9
$PLINEGEN
 70
     0
  9
$PSLTSCALE
 70
     1
  9
$TREEDEPTH
 70
  3020
  9
$CMLSTYLE
  2
STANDARD
  9
$CMLJUST
 70
     0
  9
$CMLSCALE
 40
1.0
  9
$PROXYGRAPHICS
 70
     1
  9
$MEASUREMENT
 70
     0
  9
$CELWEIGHT
370
    -1
  9
$ENDCAPS
280
     0
  9
$JOINSTYLE
280
     0
  9
$LWDISPLAY
290
     0
  9
$INSUNITS
 70
     0
  9
$HYPERLINKBASE
  1

  9
$STYLESHEET
  1
monochrome.ctb
  9
$XEDIT
290
     1
  9
$CEPSNTYPE
380
     0
  9
$PSTYLEMODE
290
     1
  9
$FINGERPRINTGUID
  2
{AFB9463B-F323-4607-850C-DC68DBB64F67}
  9
$VERSIONGUID
  2
{FEEB3B36-D6BE-43F2-8CAA-C152752A4053}
  9
$EXTNAMES
290
     1
  9
$PSVPSCALE
 40
0.0
  9
$OLESTARTUP
290
     0
  0
ENDSEC
  0
SECTION
  2
CLASSES
  0
CLASS
  1
DICTIONARYVAR
  2
AcDbDictionaryVar
  3
ObjectDBX Classes
 90
        0
280
     0
281
     0
  0
CLASS
  1
ACDBDICTIONARYWDFLT
  2
AcDbDictionaryWithDefault
  3
ObjectDBX Classes
 90
        0
280
     0
281
     0
  0
CLASS
  1
ACDBPLACEHOLDER
  2
AcDbPlaceHolder
  3
ObjectDBX Classes
 90
        0
280
     0
281
     0
  0
CLASS
  1
LAYOUT
  2
AcDbLayout
  3
ObjectDBX Classes
 90
        0
280
     0
281
     0
  0
CLASS
  1
MATERIAL
  2
AcDbMaterial
  3
ObjectDBX Classes
 90
     1153
280
     0
281
     0
  0
CLASS
  1
VISUALSTYLE
  2
AcDbVisualStyle
  3
ObjectDBX Classes
 90
     4095
280
     0
281
     0
  0
CLASS
  1
TABLESTYLE
  2
AcDbTableStyle
  3
ObjectDBX Classes
 90
     4095
280
     0
281
     0
  0
CLASS
  1
SCALE
  2
AcDbScale
  3
ObjectDBX Classes
 90
     1153
280
     0
281
     0
  0
CLASS
  1
MLEADERSTYLE
  2
AcDbMLeaderStyle
  3
ACDB_MLEADERSTYLE_CLASS
 90
     4095
280
     0
281
     0
  0
CLASS
  1
SORTENTSTABLE
  2
AcDbSortentsTable
  3
ObjectDBX Classes
 90
        0
280
     0
281
     0
  0
CLASS
  1
CELLSTYLEMAP
  2
AcDbCellStyleMap
  3
ObjectDBX Classes
 90
     1152
280
     0
281
     0
  0
CLASS
  1
EXACXREFPANELOBJECT
  2
ExAcXREFPanelObject
  3
EXAC_ESW
 90
     1025
280
     0
281
     0
  0
CLASS
  1
NPOCOLLECTION
  2
AcDbImpNonPersistentObjectsCollection
  3
ObjectDBX Classes
 90
     1153
280
     0
281
     0
  0
CLASS
  1
FIELD
  2
AcDbField
  3
ObjectDBX Classes
 90
    33920
280
     0
281
     0
  0
CLASS
  1
FIELDLIST
  2
AcDbFieldList
  3
ObjectDBX Classes
 90
     1152
280
     0
281
     0
  0
ENDSEC
  0
SECTION
  2
TABLES
  0
TABLE
  2
VPORT
  5
8
102
{ACAD_XDICTIONARY
360
6656
102
}
330
0
100
AcDbSymbolTable
 70
     1
  0
VPORT
  5
65A4
330
8
100
AcDbSymbolTableRecord
100
AcDbViewportTableRecord
  2
*Active
 70
     0
 10
0.0
 20
0.0
 11
1.0
 21
1.0
 12
59.61425412439119
 22
18.31359904821235
 13
0.0
 23
0.0
 14
1.0
 24
1.0
 15
0.0
 25
0.0
 16
0.0
 26
0.0
 36
1.0
 17
0.0
 27
0.0
 37
0.0
 40
36.86910261202347
 41
3.716019417475727
 42
50.0
 43
0.0
 44
0.0
 50
0.0
 51
0.0
 71
     0
 72
  2000
 73
     1
 74
     0
 75
     0
 76
     0
 77
     0
 78
     0
281
     0
 65
     1
110
0.0
120
0.0
130
0.0
111
1.0
121
0.0
131
0.0
112
0.0
122
1.0
132
0.0
 79
     0
146
0.0
1001
ACAD_NAV_VCDISPLAY
1070
     3
  0
ENDTAB
  0
TABLE
  2
LTYPE
  5
5
330
0
100
AcDbSymbolTable
 70
     3
  0
LTYPE
  5
11
330
5
100
AcDbSymbolTableRecord
100
AcDbLinetypeTableRecord
  2
BYBLOCK
 70
     0
  3

 72
    65
 73
     0
 40
0.0
  0
LTYPE
  5
12
330
5
100
AcDbSymbolTableRecord
100
AcDbLinetypeTableRecord
  2
BYLAYER
 70
     0
  3

 72
    65
 73
     0
 40
0.0
  0
LTYPE
  5
13
330
5
100
AcDbSymbolTableRecord
100
AcDbLinetypeTableRecord
  2
CONTINUOUS
 70
     0
  3
Solid line
 72
    65
 73
     0
 40
0.0
  0
LTYPE
  5
6A22
330
5
100
AcDbSymbolTableRecord
100
AcDbLinetypeTableRecord
  2
DASHED
 70
     0
  3
Dashed __ __ __ __ __ __ __ __ __ __ __ __ __ _
 72
    65
 73
     2
 40
0.75
 49
0.5
 74
     0
 49
-0.25
 74
     0
  0
LTYPE
  5
6A23
330
5
100
AcDbSymbolTableRecord
100
AcDbLinetypeTableRecord
  2
DOT
 70
     0
  3
Dot . . . . . . . . . . . . . . . . . . . . . .
 72
    65
 73
     2
 40
0.25
 49
0.0
 74
     0
 49
-0.25
 74
     0
  0
ENDTAB
  0
TABLE
  2
LAYER
  5
2
102
{ACAD_XDICTIONARY
360
6635
102
}
330
0
100
AcDbSymbolTable
 70
     8
  0
LAYER
  5
E
102
{ACAD_XDICTIONARY
360
6645
102
}
330
2
100
AcDbSymbolTableRecord
100
AcDbLayerTableRecord
  2
0
 70
     0
 62
     7
  6
CONTINUOUS
370
    -3
390
485B
  0
LAYER
  5
6019
102
{ACAD_XDICTIONARY
360
6647
102
}
330
2
100
AcDbSymbolTableRecord
100
AcDbLayerTableRecord
  2
R-SWTS-DET1
 70
     0
 62
     1
  6
CONTINUOUS
370
    -3
390
485B
  0
LAYER
  5
601A
102
{ACAD_XDICTIONARY
360
6649
102
}
330
2
100
AcDbSymbolTableRecord
100
AcDbLayerTableRecord
  2
PART_NUMBERS
 70
     0
 62
     6
  6
CONTINUOUS
370
    -3
390
485B
  0
LAYER
  5
601B
102
{ACAD_XDICTIONARY
360
664B
102
}
330
2
100
AcDbSymbolTableRecord
100
AcDbLayerTableRecord
  2
R-ANNO-DIMS
 70
     0
 62
     3
  6
CONTINUOUS
370
    -3
390
485B
  0
LAYER
  5
601C
102
{ACAD_XDICTIONARY
360
664D
102
}
330
2
100
AcDbSymbolTableRecord
100
AcDbLayerTableRecord
  2
R-SWTS-DET2
 70
     0
 62
     4
  6
CONTINUOUS
370
    -3
390
485B
  0
LAYER
  5
601D
102
{ACAD_XDICTIONARY
360
664F
102
}
330
2
100
AcDbSymbolTableRecord
100
AcDbLayerTableRecord
  2
R-SWTS-DET3
 70
     0
 62
     5
  6
CONTINUOUS
370
    -3
390
485B
  0
LAYER
  5
66AF
102
{ACAD_XDICTIONARY
360
66B0
102
}
330
2
100
AcDbSymbolTableRecord
100
AcDbLayerTableRecord
  2
TEXT
 70
     0
 62
     3
  6
CONTINUOUS
370
    -3
390
485B
  0
LAYER
  5
6A24
330
2
100
AcDbSymbolTableRecord
100
AcDbLayerTableRecord
  2
Kawneer Logo-English
 70
     0
 62
     7
  6
CONTINUOUS
370
    -3
390
485B
1001
AcAecLayerStandard
1000

1000

1001
AcCmTransparency
1071
        0
  0
ENDTAB
  0
TABLE
  2
STYLE
  5
3
330
0
100
AcDbSymbolTable
 70
     1
  0
STYLE
  5
F
330
3
100
AcDbSymbolTableRecord
100
AcDbTextStyleTableRecord
  2
STANDARD
 70
     0
 40
0.0
 41
1.0
 50
0.0
 71
     0
 42
0.25
  3
arial.ttf
  4

1001
ACAD
1000
Arial
1071
       34
  0
ENDTAB
  0
TABLE
  2
VIEW
  5
6
330
0
100
AcDbSymbolTable
 70
     0
  0
ENDTAB
  0
TABLE
  2
UCS
  5
7
330
0
100
AcDbSymbolTable
 70
     0
  0
ENDTAB
  0
TABLE
  2
APPID
  5
9
330
0
100
AcDbSymbolTable
 70
    15
  0
APPID
  5
10
330
9
100
AcDbSymbolTableRecord
100
AcDbRegAppTableRecord
  2
ACAD
 70
     0
  0
APPID
  5
66B3
330
9
100
AcDbSymbolTableRecord
100
AcDbRegAppTableRecord
  2
ACAD_NAV_VCDISPLAY
 70
     0
  0
APPID
  5
6A25
330
9
100
AcDbSymbolTableRecord
100
AcDbRegAppTableRecord
  2
ACAD_EXEMPT_FROM_CAD_STANDARDS
 70
     0
  0
APPID
  5
6A26
330
9
100
AcDbSymbolTableRecord
100
AcDbRegAppTableRecord
  2
GradientColor1ACI
 70
     0
  0
APPID
  5
6A27
330
9
100
AcDbSymbolTableRecord
100
AcDbRegAppTableRecord
  2
GradientColor2ACI
 70
     0
  0
APPID
  5
6A28
330
9
100
AcDbSymbolTableRecord
100
AcDbRegAppTableRecord
  2
ACAD_MLEADERVER
 70
     0
  0
APPID
  5
6A29
330
9
100
AcDbSymbolTableRecord
100
AcDbRegAppTableRecord
  2
ACAD_PSEXT
 70
     0
  0
APPID
  5
6A2A
330
9
100
AcDbSymbolTableRecord
100
AcDbRegAppTableRecord
  2
ACAD_DSTYLE_DIMJAG
 70
     0
  0
APPID
  5
6A2B
330
9
100
AcDbSymbolTableRecord
100
AcDbRegAppTableRecord
  2
ACAD_DSTYLE_DIMTALN
 70
     0
  0
APPID
  5
6A2C
330
9
100
AcDbSymbolTableRecord
100
AcDbRegAppTableRecord
  2
ACAD_DSTYLE_DIMBREAK
 70
     0
  0
APPID
  5
6A2D
330
9
100
AcDbSymbolTableRecord
100
AcDbRegAppTableRecord
  2
AcDbDynamicBlockGUID
 70
     0
  0
APPID
  5
6A2E
330
9
100
AcDbSymbolTableRecord
100
AcDbRegAppTableRecord
  2
ACAUTHENVIRON
 70
     0
  0
APPID
  5
6A2F
330
9
100
AcDbSymbolTableRecord
100
AcDbRegAppTableRecord
  2
AcDbDynamicBlockTrueName
 70
     0
  0
APPID
  5
6A30
330
9
100
AcDbSymbolTableRecord
100
AcDbRegAppTableRecord
  2
AcAecLayerStandard
 70
     0
  0
APPID
  5
6A31
330
9
100
AcDbSymbolTableRecord
100
AcDbRegAppTableRecord
  2
AcCmTransparency
 70
     0
  0
ENDTAB
  0
TABLE
  2
DIMSTYLE
  5
A
330
0
100
AcDbSymbolTable
 70
     1
100
AcDbDimStyleTable
 71
     0
  0
DIMSTYLE
105
26C
330
A
100
AcDbSymbolTableRecord
100
AcDbDimStyleTableRecord
  2
STANDARD
 70
     0
340
F
  0
ENDTAB
  0
TABLE
  2
BLOCK_RECORD
  5
1
330
0
100
AcDbSymbolTable
 70
     1
  0
BLOCK_RECORD
  5
17
102
{ACAD_XDICTIONARY
360
4A11
102
}
330
1
100
AcDbSymbolTableRecord
100
AcDbBlockTableRecord
  2
*MODEL_SPACE
340
485E
  0
BLOCK_RECORD
  5
14
102
{ACAD_XDICTIONARY
360
4A0F
102
}
330
1
100
AcDbSymbolTableRecord
100
AcDbBlockTableRecord
  2
*PAPER_SPACE
340
485F
  0
BLOCK_RECORD
  5
6A34
102
{ACAD_XDICTIONARY
360
6A3E
102
}
330
1
100
AcDbSymbolTableRecord
100
AcDbBlockTableRecord
  2
Kawneer Logo English
340
0
102
{BLKREFS
331
6A42
102
}
1001
ACAD
1000
DesignCenter Data
1002
{
1070
     1
1070
     1
1002
}
  0
ENDTAB
  0
ENDSEC
  0
SECTION
  2
BLOCKS
  0
BLOCK
  5
3C
330
17
100
AcDbEntity
  8
0
100
AcDbBlockBegin
  2
*MODEL_SPACE
 70
     0
 10
0.0
 20
0.0
 30
0.0
  3
*MODEL_SPACE
  1

  0
ENDBLK
  5
3D
330
17
100
AcDbEntity
  8
0
100
AcDbBlockEnd
  0
BLOCK
  5
3A
330
14
100
AcDbEntity
 67
     1
  8
0
100
AcDbBlockBegin
  2
*PAPER_SPACE
 70
     0
 10
0.0
 20
0.0
 30
0.0
  3
*PAPER_SPACE
  1

  0
ENDBLK
  5
3B
330
14
100
AcDbEntity
 67
     1
  8
0
100
AcDbBlockEnd
  0
BLOCK
  5
6A40
330
6A34
100
AcDbEntity
  8
0
100
AcDbBlockBegin
  2
Kawneer Logo English
 70
     0
 10
0.0
 20
0.0
 30
0.0
  3
Kawneer Logo English
  1

  0
MTEXT
  5
6A35
102
{ACAD_XDICTIONARY
360
6A9D
102
}
330
6A34
100
AcDbEntity
  8
Kawneer Logo-English
100
AcDbMText
 10
1.510096758583198
 20
0.0372523876656778
 30
0.0
 40
0.036
 41
0.6125900866323382
 71
     3
 72
     5
  1
{\fArial TUR|b0|i0|c0|p34;\T1.05;AN ARCONIC COMPANY}
 73
     1
 44
1.0
1001
ACAD
1000
ACAD_MTEXT_COLUMN_INFO_BEGIN
1070
    75
1070
     2
1070
    79
1070
     0
1070
    76
1070
     1
1070
    78
1070
     0
1070
    48
1040
0.6125900866323382
1070
    49
1040
1.0
1070
    50
1070
     1
1040
0.0
1000
ACAD_MTEXT_COLUMN_INFO_END
1000
MTEXTBEGIN
1070
    73
1070
     1
1070
    44
1040
1.0
1070
    74
1070
     0
1000
MTEXTEND
  0
HATCH
  5
6A36
330
6A34
100
AcDbEntity
  8
Kawneer Logo-English
100
AcDbHatch
 10
0.0
 20
0.0
 30
0.0
210
0.0
220
0.0
230
1.0
  2
SOLID
 70
     1
 71
     0
 91
        1
 92
        1
 93
       81
 72
     1
 10
0.2706169776412204
 20
0.0336337282279411
 11
0.2687512969786691
 21
0.0350329887248546
 72
     1
 10
0.2687512969786696
 20
0.0350329887248547
 11
0.2633408230572721
 21
0.039137486182467
 72
     1
 10
0.2633408230572729
 20
0.0391374861824669
 11
0.2550385441089194
 21
0.0453875164020133
 72
     1
 10
0.2550385441089191
 20
0.0453875164020132
 11
0.2442175962661241
 21
0.053596511317238
 72
     1
 10
0.2442175962661235
 20
0.0535965113172379
 11
0.2314376837276472
 21
0.0632980507625037
 72
     1
 10
0.2314376837276479
 20
0.0632980507625037
 11
0.2172585106922595
 21
0.0741189986052996
 72
     1
 10
0.2172585106922598
 20
0.0741189986052996
 11
0.2019599292593419
 21
0.0856862187131167
 72
     1
 10
0.201959929259341
 20
0.0856862187131167
 11
0.1862882116939105
 21
0.0976265749534437
 72
     1
 10
0.1862882116939102
 20
0.0976265749534437
 11
0.1706164941284813
 21
0.1095669311937706
 72
     1
 10
0.1706164941284811
 20
0.1095669311937709
 11
0.1553179126955632
 21
0.1211341513015875
 72
     1
 10
0.1553179126955642
 20
0.1211341513015876
 11
0.1411387396601757
 21
0.131955099144384
 72
     1
 10
0.1411387396601755
 20
0.1319550991443839
 11
0.1284521111548274
 21
0.141749922622777
 72
     1
 10
0.1284521111548278
 20
0.1417499226227768
 11
0.117631163312031
 21
0.1499589175380016
 72
     1
 10
0.1176311633120304
 20
0.1499589175380017
 11
0.1094221683968068
 21
0.1563022317906752
 72
     1
 10
0.1094221683968062
 20
0.1563022317906754
 11
0.1041049785085351
 21
0.1604067292482882
 72
     1
 10
0.1041049785085351
 20
0.1604067292482878
 11
0.1023325818791119
 21
0.1618992737783286
 72
     1
 10
0.1023325818791116
 20
0.1618992737783289
 11
0.1043848306079176
 21
0.1636716704077524
 72
     1
 10
0.1043848306079194
 20
0.1636716704077524
 11
0.1100751566286996
 21
0.1683358720641301
 72
     1
 10
0.1100751566286986
 20
0.1683358720641301
 11
0.1189371397758159
 21
0.1757053106812067
 72
     1
 10
0.1189371397758161
 20
0.1757053106812067
 11
0.1304110758505067
 21
0.1851269980270901
 72
     1
 10
0.1304110758505059
 20
0.1851269980270902
 11
0.1439372606540007
 21
0.1963210820023967
 72
     1
 10
0.1439372606540017
 20
0.1963210820023967
 11
0.1589559899875385
 21
0.2087278584083611
 72
     1
 10
0.1589559899875379
 20
0.2087278584083611
 11
0.1750941277186041
 21
0.2220674751456017
 72
     1
 10
0.1750941277186047
 20
0.2220674751456017
 11
0.19169868561531
 21
0.2358735120484796
 72
     1
 10
0.1916986856153105
 20
0.2358735120484796
 11
0.208303243512014
 21
0.2495862649182301
 72
     1
 10
0.2083032435120131
 20
0.2495862649182304
 11
0.2244413812430811
 21
0.2628325976223432
 72
     1
 10
0.2244413812430812
 20
0.2628325976223429
 11
0.239460110576618
 21
0.2753326580614352
 72
     1
 10
0.2394601105766174
 20
0.2753326580614351
 11
0.2529862953801122
 21
0.2864334580036143
 72
     1
 10
0.2529862953801132
 20
0.2864334580036143
 11
0.2643669474216756
 21
0.2958551453494973
 72
     1
 10
0.2643669474216757
 20
0.2958551453494973
 11
0.2731356465356649
 21
0.3031312999334466
 72
     1
 10
0.273135646535664
 20
0.3031312999334466
 11
0.2788259725564443
 21
0.3077955015898243
 72
     1
 10
0.278825972556445
 20
0.3077955015898246
 11
0.2807849372521245
 21
0.3094746141861208
 72
     1
 10
0.2807849372521249
 20
0.3094746141861205
 11
0.2798520969208501
 21
0.3094746141861205
 72
     1
 10
0.2798520969208496
 20
0.3094746141861205
 11
0.2769602918938953
 21
0.3095678982192478
 72
     1
 10
0.2769602918938943
 20
0.3095678982192481
 11
0.2724826583037715
 21
0.3095678982192481
 72
     1
 10
0.2724826583037729
 20
0.3095678982192481
 11
0.2666057642167363
 21
0.3095678982192481
 72
     1
 10
0.266605764216735
 20
0.3095678982192481
 11
0.2597027457652953
 21
0.3095678982192481
 72
     1
 10
0.2597027457652956
 20
0.3095678982192481
 11
0.2519601710157094
 21
0.3095678982192481
 72
     1
 10
0.2519601710157104
 20
0.3095678982192481
 11
0.2437511761004851
 21
0.3095678982192481
 72
     1
 10
0.243751176100484
 20
0.3095678982192481
 11
0.2351690450527495
 21
0.3095678982192481
 72
     1
 10
0.2351690450527495
 20
0.3095678982192481
 11
0.2266801980381413
 21
0.3095678982192481
 72
     1
 10
0.2266801980381423
 20
0.3095678982192481
 11
0.2183779190897905
 21
0.3094746141861208
 72
     1
 10
0.2183779190897899
 20
0.3094746141861205
 11
0.2106353443402037
 21
0.3094746141861205
 72
     1
 10
0.2106353443402029
 20
0.3094746141861205
 11
0.2037323258887632
 21
0.3094746141861205
 72
     1
 10
0.203732325888764
 20
0.3094746141861205
 11
0.1978554318017273
 21
0.3094746141861205
 72
     1
 10
0.1978554318017278
 20
0.3094746141861205
 11
0.1932845141784786
 21
0.3094746141861205
 72
     1
 10
0.1932845141784787
 20
0.3094746141861205
 11
0.1903927091515244
 21
0.3094746141861205
 72
     1
 10
0.1903927091515234
 20
0.3094746141861205
 11
0.1893665847871204
 21
0.3094746141861205
 72
     1
 10
0.1893665847871206
 20
0.3094746141861205
 11
0.1879673242902067
 21
0.3077955015898243
 72
     1
 10
0.1879673242902076
 20
0.3077955015898246
 11
0.1841426789319786
 21
0.3030380159003196
 72
     1
 10
0.1841426789319787
 20
0.3030380159003192
 11
0.1780792167786874
 21
0.29576186131637
 72
     1
 10
0.1780792167786873
 20
0.29576186131637
 11
0.170243357995973
 21
0.2862468899373593
 72
     1
 10
0.170243357995973
 20
0.2862468899373593
 11
0.1610082387163447
 21
0.2750528059620528
 72
     1
 10
0.1610082387163438
 20
0.2750528059620528
 11
0.1507469950723126
 21
0.2624594614898328
 72
     1
 10
0.1507469950723133
 20
0.2624594614898328
 11
0.1396461951301336
 21
0.2491198447525922
 72
     1
 10
0.1396461951301333
 20
0.2491198447525922
 11
0.1282655430885727
 21
0.2352205238165866
 72
     1
 10
0.1282655430885726
 20
0.2352205238165868
 11
0.1168848910470102
 21
0.2214144869137089
 72
     1
 10
0.1168848910470102
 20
0.2214144869137087
 11
0.1058773751379587
 21
0.2079815861433408
 72
     1
 10
0.105877375137958
 20
0.2079815861433408
 11
0.0955228474608004
 21
0.1954815257042486
 72
     1
 10
0.0955228474608019
 20
0.1954815257042488
 11
0.0862877281811736
 21
0.1842874417289424
 72
     1
 10
0.0862877281811727
 20
0.1842874417289424
 11
0.0784518693984583
 21
0.1747724703499316
 72
     1
 10
0.0784518693984584
 20
0.1747724703499314
 11
0.0723884072451672
 21
0.1674963157659821
 72
     1
 10
0.0723884072451671
 20
0.1674963157659822
 11
0.0685637618869363
 21
0.1627388300764767
 72
     1
 10
0.0685637618869364
 20
0.1627388300764767
 11
0.0671645013900242
 21
0.1611530015133082
 72
     1
 10
0.0671645013900251
 20
0.1611530015133082
 11
0.0680040576881734
 21
0.1596604569832674
 72
     1
 10
0.0680040576881726
 20
0.1596604569832674
 11
0.0704294425494878
 21
0.1556492435587824
 72
     1
 10
0.0704294425494871
 20
0.1556492435587824
 11
0.0742540879077179
 21
0.1493059293061089
 72
     1
 10
0.0742540879077192
 20
0.1493059293061089
 11
0.0791048576303511
 21
0.1411902184240116
 72
     1
 10
0.0791048576303508
 20
0.1411902184240116
 11
0.0848884676842594
 21
0.1314886789787458
 72
     1
 10
0.0848884676842596
 20
0.1314886789787459
 11
0.0913250659700619
 21
0.1207610151690772
 72
     1
 10
0.0913250659700613
 20
0.1207610151690775
 11
0.0982280844214992
 21
0.1091937950612604
 72
     1
 10
0.0982280844214985
 20
0.1091937950612603
 11
0.1053176709391927
 21
0.0973467228540611
 72
     1
 10
0.105317670939193
 20
0.0973467228540612
 11
0.1124072574568872
 21
0.0854996506468619
 72
     1
 10
0.1124072574568871
 20
0.0854996506468617
 11
0.1193102759083267
 21
0.0739324305390446
 72
     1
 10
0.1193102759083278
 20
0.0739324305390448
 11
0.1257468741941283
 21
0.0632047667293762
 72
     1
 10
0.1257468741941277
 20
0.063204766729376
 11
0.1315304842480362
 21
0.0535032272841102
 72
     1
 10
0.1315304842480365
 20
0.0535032272841104
 11
0.1363812539706702
 21
0.0453875164020132
 72
     1
 10
0.1363812539706699
 20
0.0453875164020132
 11
0.1402058993288989
 21
0.0391374861824667
 72
     1
 10
0.1402058993288988
 20
0.0391374861824669
 11
0.1426312841902157
 21
0.0350329887248546
 72
     1
 10
0.1426312841902164
 20
0.0350329887248547
 11
0.1434708404883648
 21
0.0336337282279412
 72
     1
 10
0.143470840488364
 20
0.0336337282279411
 11
0.2706169776412211
 21
0.0336337282279411
 97
        0
 75
     0
 76
     1
 98
        1
 10
-0.3743130907707726
 20
-0.2500502867693841
1001
ACAD
1010
0.0
1020
0.0
1030
0.0
  0
HATCH
  5
6A37
330
6A34
100
AcDbEntity
  8
Kawneer Logo-English
100
AcDbHatch
 10
0.0
 20
0.0
 30
0.0
210
0.0
220
0.0
230
1.0
  2
SOLID
 70
     1
 71
     0
 91
        1
 92
        1
 93
       18
 72
     1
 10
0.0001865656044393
 20
0.2563959993365415
 11
-0.0000000024618153
 21
0.113671428651383
 72
     1
 10
-0.0000000024618159
 20
0.1136714286513832
 11
0.0012126899688416
 21
0.1152572572145516
 72
     1
 10
0.0012126899688421
 20
0.1152572572145516
 11
0.0045709151614355
 21
0.1197348908046738
 72
     1
 10
0.004570915161435
 20
0.119734890804674
 11
0.0098881050497044
 21
0.1268244773223682
 72
     1
 10
0.0098881050497044
 20
0.1268244773223682
 11
0.0166978394680158
 21
0.1359663125688683
 72
     1
 10
0.016697839468016
 20
0.1359663125688683
 11
0.0248135503501131
 21
0.1467872604116651
 72
     1
 10
0.024813550350113
 20
0.1467872604116652
 11
0.0338621015634867
 21
0.1588209006851195
 72
     1
 10
0.0338621015634872
 20
0.1588209006851194
 11
0.0434703569756247
 21
0.1716940972567221
 72
     1
 10
0.0434703569756247
 20
0.1716940972567224
 11
0.0534517485202732
 21
0.1850337139939626
 72
     1
 10
0.0534517485202724
 20
0.1850337139939624
 11
0.0634331400649208
 21
0.1983733307312025
 72
     1
 10
0.0634331400649222
 20
0.1983733307312024
 11
0.0730413954770597
 21
0.2112465273028051
 72
     1
 10
0.0730413954770595
 20
0.2112465273028053
 11
0.0820899466904331
 21
0.2233734516093873
 72
     1
 10
0.0820899466904321
 20
0.2233734516093873
 11
0.0902056575725293
 21
0.2341943994521837
 72
     1
 10
0.0902056575725308
 20
0.2341943994521837
 11
0.0970153919908422
 21
0.2433362346986839
 72
     1
 10
0.0970153919908405
 20
0.2433362346986839
 11
0.1022392978459834
 21
0.2503325371832507
 72
     1
 10
0.1022392978459843
 20
0.2503325371832508
 11
0.1056908070717041
 21
0.2549034548065008
 72
     1
 10
0.1056908070717046
 20
0.254903454806501
 11
0.1069034995023621
 21
0.2564892833696694
 72
     1
 10
0.1069034995023625
 20
0.2564892833696695
 11
0.0001865656044399
 21
0.2563959993365418
 97
        0
 75
     0
 76
     1
 98
        1
 10
-0.3743130907707726
 20
-0.2500502867693841
1001
ACAD
1010
0.0
1020
0.0
1030
0.0
  0
HATCH
  5
6A38
330
6A34
100
AcDbEntity
  8
Kawneer Logo-English
100
AcDbHatch
 10
0.0
 20
0.0
 30
0.0
210
0.0
220
0.0
230
1.0
  2
SOLID
 70
     1
 71
     0
 91
        2
 92
       16
 93
       76
 72
     1
 10
1.358402087941634
 20
0.1650709309046659
 11
1.358402087941634
 21
0.16796273593162
 72
     1
 10
1.358402087941634
 20
0.1679627359316202
 11
1.358402087941634
 21
0.1729067896873803
 72
     1
 10
1.358402087941634
 20
0.1729067896873803
 11
1.358402087941634
 21
0.1791568199069267
 72
     1
 10
1.358402087941634
 20
0.1791568199069267
 11
1.358402087941634
 21
0.1861531223914932
 72
     1
 10
1.358402087941634
 20
0.186153122391493
 11
1.358402087941634
 21
0.1931494248760595
 72
     1
 10
1.358402087941634
 20
0.1931494248760596
 11
1.358402087941634
 21
0.1994927391287338
 72
     1
 10
1.358402087941634
 20
0.1994927391287336
 11
1.358402087941634
 21
0.2044367928844937
 72
     1
 10
1.358402087941634
 20
0.2044367928844937
 11
1.358402087941634
 21
0.2072353138783208
 72
     1
 10
1.358402087941634
 20
0.2072353138783208
 11
1.359894632471676
 21
0.2072353138783208
 72
     1
 10
1.359894632471676
 20
0.2072353138783208
 11
1.362693153465502
 21
0.2072353138783208
 72
     1
 10
1.362693153465502
 20
0.2072353138783208
 11
1.366424514790605
 21
0.2072353138783208
 72
     1
 10
1.366424514790606
 20
0.2072353138783208
 11
1.371088716446983
 21
0.2072353138783208
 72
     1
 10
1.371088716446982
 20
0.2072353138783208
 11
1.376405906335254
 21
0.2072353138783208
 72
     1
 10
1.376405906335254
 20
0.2072353138783208
 11
1.382282800422289
 21
0.2072353138783208
 72
     1
 10
1.38228280042229
 20
0.2072353138783208
 11
1.388346262575581
 21
0.2072353138783208
 72
     1
 10
1.388346262575579
 20
0.2072353138783208
 11
1.394596292795125
 21
0.2072353138783208
 72
     1
 10
1.394596292795125
 20
0.2072353138783208
 11
1.400753038981545
 21
0.2072353138783208
 72
     1
 10
1.400753038981546
 20
0.2072353138783208
 11
1.406723217101709
 21
0.2072353138783208
 72
     1
 10
1.406723217101708
 20
0.2072353138783208
 11
1.412320259089362
 21
0.2072353138783208
 72
     1
 10
1.412320259089362
 20
0.2072353138783208
 11
1.417264312845122
 21
0.2072353138783208
 72
     1
 10
1.417264312845123
 20
0.2072353138783208
 11
1.421368810302735
 21
0.2072353138783208
 72
     1
 10
1.421368810302734
 20
0.2072353138783208
 11
1.424540467429071
 21
0.2072353138783208
 72
     1
 10
1.424540467429072
 20
0.2072353138783208
 11
1.426592716157878
 21
0.2072353138783208
 72
     1
 10
1.426592716157878
 20
0.2072353138783208
 11
1.427338988422898
 21
0.2072353138783208
 72
     1
 10
1.427338988422898
 20
0.2072353138783208
 11
1.430977065714873
 21
0.207142029845193
 72
     1
 10
1.430977065714872
 20
0.207142029845193
 11
1.434335290907465
 21
0.2068621777458102
 72
     1
 10
1.434335290907465
 20
0.2068621777458102
 11
1.435921119470633
 21
0.2066756096795552
 72
     1
 10
1.435921119470633
 20
0.206675609679555
 11
1.437413664000673
 21
0.2063957575801723
 72
     1
 10
1.437413664000674
 20
0.2063957575801723
 11
1.438906208530714
 21
0.2061159054807895
 72
     1
 10
1.438906208530714
 20
0.2061159054807898
 11
1.440398753060756
 21
0.2056494853151523
 72
     1
 10
1.440398753060756
 20
0.2056494853151521
 11
1.441704729524542
 21
0.2050897811163865
 72
     1
 10
1.441704729524542
 20
0.2050897811163866
 11
1.443010705988328
 21
0.204530076917621
 72
     1
 10
1.443010705988329
 20
0.204530076917621
 11
1.444223398418986
 21
0.2036905206194736
 72
     1
 10
1.444223398418985
 20
0.2036905206194736
 11
1.445436090849643
 21
0.2028509643213252
 72
     1
 10
1.445436090849643
 20
0.2028509643213252
 11
1.446555499247174
 21
0.2018248399569224
 72
     1
 10
1.446555499247173
 20
0.2018248399569223
 11
1.447581623611576
 21
0.2007054315593917
 72
     1
 10
1.447581623611578
 20
0.2007054315593915
 11
1.448607747975981
 21
0.1993061710624781
 72
     1
 10
1.448607747975981
 20
0.1993061710624781
 11
1.449540588307258
 21
0.1978136265324374
 72
     1
 10
1.449540588307256
 20
0.1978136265324373
 11
1.450380144605403
 21
0.1961345139361415
 72
     1
 10
1.450380144605404
 20
0.1961345139361415
 11
1.451126416870426
 21
0.1944554013398453
 72
     1
 10
1.451126416870426
 20
0.1944554013398454
 11
1.451592837036063
 21
0.1929628568098046
 72
     1
 10
1.451592837036062
 20
0.1929628568098046
 11
1.451965973168573
 21
0.1913770282466361
 72
     1
 10
1.451965973168574
 20
0.1913770282466361
 11
1.452245825267955
 21
0.1899777677497231
 72
     1
 10
1.452245825267954
 20
0.1899777677497231
 11
1.452432393334211
 21
0.188671791285937
 72
     1
 10
1.452432393334211
 20
0.1886717912859369
 11
1.452432393334211
 21
0.1874590988552789
 72
     1
 10
1.452432393334211
 20
0.1874590988552789
 11
1.452525677367338
 21
0.1863396904577482
 72
     1
 10
1.452525677367337
 20
0.1863396904577481
 11
1.452432393334211
 21
0.1844740097951972
 72
     1
 10
1.452432393334211
 20
0.1844740097951974
 11
1.452245825267955
 21
0.1827948971989012
 72
     1
 10
1.452245825267954
 20
0.1827948971989009
 11
1.451872689135445
 21
0.1810225005694773
 72
     1
 10
1.451872689135446
 20
0.1810225005694774
 11
1.451406268969809
 21
0.1794366720063093
 72
     1
 10
1.451406268969809
 20
0.1794366720063094
 11
1.450846564771043
 21
0.1779441274762682
 72
     1
 10
1.450846564771041
 20
0.1779441274762681
 11
1.450100292506021
 21
0.1764515829462274
 72
     1
 10
1.450100292506023
 20
0.1764515829462275
 11
1.449260736207875
 21
0.1750523224493141
 72
     1
 10
1.449260736207873
 20
0.1750523224493139
 11
1.448327895876597
 21
0.1737463459855283
 72
     1
 10
1.448327895876596
 20
0.1737463459855281
 11
1.44702191941281
 21
0.1723470854886151
 72
     1
 10
1.447021919412811
 20
0.1723470854886151
 11
1.445715942949025
 21
0.1711343930579568
 72
     1
 10
1.445715942949026
 20
0.1711343930579568
 11
1.444316682452114
 21
0.1700149846604262
 72
     1
 10
1.444316682452114
 20
0.1700149846604259
 11
1.442824137922072
 21
0.168988860296023
 72
     1
 10
1.442824137922072
 20
0.168988860296023
 11
1.441238309358904
 21
0.1682425880310024
 72
     1
 10
1.441238309358902
 20
0.1682425880310024
 11
1.439559196762608
 21
0.1674963157659821
 72
     1
 10
1.439559196762608
 20
0.1674963157659822
 11
1.437880084166311
 21
0.1669366115672166
 72
     1
 10
1.437880084166311
 20
0.1669366115672167
 11
1.436107687536888
 21
0.1664701914015788
 72
     1
 10
1.436107687536888
 20
0.1664701914015789
 11
1.434242006874337
 21
0.166003771235941
 72
     1
 10
1.434242006874337
 20
0.1660037712359412
 11
1.432376326211786
 21
0.1657239191365588
 72
     1
 10
1.432376326211785
 20
0.1657239191365585
 11
1.430417361516107
 21
0.1655373510703035
 72
     1
 10
1.430417361516108
 20
0.1655373510703037
 11
1.428458396820429
 21
0.1653507830040482
 72
     1
 10
1.428458396820428
 20
0.1653507830040482
 11
1.424353899362817
 21
0.1651642149377932
 72
     1
 10
1.424353899362817
 20
0.1651642149377932
 11
1.420156117872077
 21
0.1650709309046658
 72
     1
 10
1.420156117872076
 20
0.1650709309046659
 11
1.41773073301076
 21
0.1650709309046659
 72
     1
 10
1.417730733010761
 20
0.1650709309046659
 11
1.411107566658704
 21
0.1650709309046659
 72
     1
 10
1.411107566658702
 20
0.1650709309046659
 11
1.401779163345947
 21
0.1650709309046659
 72
     1
 10
1.401779163345949
 20
0.1650709309046659
 11
1.390958215503152
 21
0.1650709309046659
 72
     1
 10
1.390958215503152
 20
0.1650709309046659
 11
1.379950699594101
 21
0.1650709309046659
 72
     1
 10
1.379950699594099
 20
0.1650709309046659
 11
1.369969308049451
 21
0.1650709309046659
 72
     1
 10
1.369969308049451
 20
0.1650709309046659
 11
1.362320017332992
 21
0.1650709309046659
 72
     1
 10
1.362320017332992
 20
0.1650709309046659
 11
1.358402087941635
 21
0.1650709309046659
 97
        0
 92
        1
 93
      107
 72
     1
 10
1.443756978253348
 20
0.1485596570410883
 11
1.446928635379685
 21
0.1492126452729816
 72
     1
 10
1.446928635379685
 20
0.1492126452729817
 11
1.449540588307256
 21
0.1498656335048746
 72
     1
 10
1.449540588307256
 20
0.1498656335048745
 11
1.451872689135445
 21
0.1506119057698948
 72
     1
 10
1.451872689135446
 20
0.1506119057698946
 11
1.45401822189738
 21
0.1514514620680426
 72
     1
 10
1.45401822189738
 20
0.1514514620680425
 11
1.455883902559929
 21
0.1521977343330632
 72
     1
 10
1.455883902559929
 20
0.1521977343330631
 11
1.457563015156225
 21
0.1530372906312111
 72
     1
 10
1.457563015156225
 20
0.1530372906312111
 11
1.459148843719394
 21
0.1539701309624869
 72
     1
 10
1.459148843719394
 20
0.1539701309624866
 11
1.460641388249434
 21
0.1549029712937624
 72
     1
 10
1.460641388249434
 20
0.1549029712937622
 11
1.462133932779476
 21
0.155835811625038
 72
     1
 10
1.462133932779476
 20
0.155835811625038
 11
1.463439909243262
 21
0.1568619359894408
 72
     1
 10
1.463439909243262
 20
0.1568619359894408
 11
1.464745885707048
 21
0.1579813443869714
 72
     1
 10
1.464745885707047
 20
0.1579813443869716
 11
1.465865294104579
 21
0.1591007527845022
 72
     1
 10
1.465865294104579
 20
0.1591007527845025
 11
1.466984702502109
 21
0.1602201611820331
 72
     1
 10
1.466984702502108
 20
0.1602201611820328
 11
1.468010826866511
 21
0.1613395695795634
 72
     1
 10
1.468010826866511
 20
0.1613395695795637
 11
1.468943667197788
 21
0.1625522620102216
 72
     1
 10
1.468943667197788
 20
0.1625522620102216
 11
1.469876507529063
 21
0.1636716704077522
 72
     1
 10
1.469876507529063
 20
0.1636716704077524
 11
1.470622779794084
 21
0.1648843628384107
 72
     1
 10
1.470622779794084
 20
0.1648843628384107
 11
1.471462336092232
 21
0.1661903393021964
 72
     1
 10
1.471462336092232
 20
0.1661903393021967
 11
1.472115324324125
 21
0.1674030317328546
 72
     1
 10
1.472115324324124
 20
0.1674030317328546
 11
1.472768312556016
 21
0.1686157241635125
 72
     1
 10
1.472768312556017
 20
0.1686157241635125
 11
1.473328016754783
 21
0.1699217006272986
 72
     1
 10
1.473328016754782
 20
0.1699217006272989
 11
1.47379443692042
 21
0.1711343930579568
 72
     1
 10
1.47379443692042
 20
0.1711343930579568
 11
1.474260857086057
 21
0.1724403695217425
 72
     1
 10
1.474260857086058
 20
0.1724403695217424
 11
1.474727277251697
 21
0.1736530619524008
 72
     1
 10
1.474727277251697
 20
0.173653061952401
 11
1.475380265483589
 21
0.1760784468137175
 72
     1
 10
1.475380265483588
 20
0.1760784468137173
 11
1.475846685649225
 21
0.1785038316750338
 72
     1
 10
1.475846685649226
 20
0.1785038316750335
 11
1.476219821781737
 21
0.1808359325032223
 72
     1
 10
1.476219821781738
 20
0.1808359325032223
 11
1.47649967388112
 21
0.1830747492982838
 72
     1
 10
1.47649967388112
 20
0.1830747492982838
 11
1.476592957914248
 21
0.1851269980270901
 72
     1
 10
1.476592957914248
 20
0.1851269980270902
 11
1.476686241947374
 21
0.1870859627227688
 72
     1
 10
1.476686241947375
 20
0.1870859627227687
 11
1.476592957914249
 21
0.1888583593521923
 72
     1
 10
1.476592957914248
 20
0.1888583593521922
 11
1.476499673881119
 21
0.1906307559816158
 72
     1
 10
1.47649967388112
 20
0.1906307559816159
 11
1.476406389847991
 21
0.1924031526110394
 72
     1
 10
1.476406389847991
 20
0.1924031526110394
 11
1.476126537748608
 21
0.1940822652073352
 72
     1
 10
1.476126537748608
 20
0.1940822652073352
 11
1.475846685649226
 21
0.195761377803631
 72
     1
 10
1.475846685649226
 20
0.1957613778036309
 11
1.475566833549843
 21
0.1974404903999272
 72
     1
 10
1.475566833549843
 20
0.1974404903999272
 11
1.475100413384206
 21
0.1990263189630953
 72
     1
 10
1.475100413384205
 20
0.1990263189630952
 11
1.474633993218568
 21
0.2006121475262637
 72
     1
 10
1.474633993218568
 20
0.2006121475262639
 11
1.47416757305293
 21
0.2021046920563051
 72
     1
 10
1.474167573052932
 20
0.2021046920563049
 11
1.473514584821038
 21
0.2035972365863457
 72
     1
 10
1.473514584821037
 20
0.2035972365863459
 11
1.472954880622271
 21
0.2050897811163867
 72
     1
 10
1.472954880622272
 20
0.2050897811163866
 11
1.472208608357252
 21
0.2064890416133
 72
     1
 10
1.472208608357252
 20
0.2064890416133001
 11
1.471462336092232
 21
0.2078883021102135
 72
     1
 10
1.471462336092232
 20
0.2078883021102136
 11
1.470622779794083
 21
0.2091942785739993
 72
     1
 10
1.470622779794084
 20
0.2091942785739991
 11
1.469783223495935
 21
0.2105002550377848
 72
     1
 10
1.469783223495934
 20
0.2105002550377851
 11
1.468850383164659
 21
0.2118062315015707
 72
     1
 10
1.468850383164661
 20
0.2118062315015709
 11
1.467917542833386
 21
0.2130189239322288
 72
     1
 10
1.467917542833385
 20
0.2130189239322289
 11
1.466891418468982
 21
0.2141383323297595
 72
     1
 10
1.466891418468982
 20
0.2141383323297595
 11
1.465772010071451
 21
0.2153510247604178
 72
     1
 10
1.46577201007145
 20
0.215351024760418
 11
1.464652601673919
 21
0.2163771491248209
 72
     1
 10
1.46465260167392
 20
0.2163771491248209
 11
1.463533193276389
 21
0.2174032734892238
 72
     1
 10
1.463533193276389
 20
0.2174032734892238
 11
1.462227216812603
 21
0.2184293978536266
 72
     1
 10
1.462227216812602
 20
0.2184293978536266
 11
1.461014524381945
 21
0.2193622381849024
 72
     1
 10
1.461014524381946
 20
0.2193622381849023
 11
1.459615263885032
 21
0.2202950785161781
 72
     1
 10
1.459615263885031
 20
0.2202950785161782
 11
1.458309287421245
 21
0.2211346348143262
 72
     1
 10
1.458309287421246
 20
0.221134634814326
 11
1.456816742891206
 21
0.221974191112474
 72
     1
 10
1.456816742891206
 20
0.2219741911124738
 11
1.455417482394292
 21
0.2227204633774945
 72
     1
 10
1.455417482394291
 20
0.2227204633774944
 11
1.453831653831122
 21
0.2233734516093874
 72
     1
 10
1.453831653831123
 20
0.2233734516093873
 11
1.452339109301082
 21
0.2240264398412803
 72
     1
 10
1.452339109301082
 20
0.2240264398412803
 11
1.450659996704785
 21
0.2245861440400459
 72
     1
 10
1.450659996704787
 20
0.2245861440400457
 11
1.44907416814162
 21
0.2251458482388108
 72
     1
 10
1.449074168141619
 20
0.2251458482388109
 11
1.447301771512194
 21
0.2256122684044489
 72
     1
 10
1.447301771512194
 20
0.2256122684044488
 11
1.445249522783388
 21
0.2261719726032139
 72
     1
 10
1.445249522783388
 20
0.226171972603214
 11
1.44329055808771
 21
0.2265451087357246
 72
     1
 10
1.443290558087712
 20
0.2265451087357244
 11
1.441145025325778
 21
0.2269182448682345
 72
     1
 10
1.441145025325776
 20
0.2269182448682345
 11
1.438906208530714
 21
0.2271980969676173
 72
     1
 10
1.438906208530714
 20
0.2271980969676173
 11
1.436387539636271
 21
0.2273846650338724
 72
     1
 10
1.436387539636271
 20
0.2273846650338724
 11
1.433495734609316
 21
0.2275712331001274
 72
     1
 10
1.433495734609317
 20
0.2275712331001274
 11
1.430044225383597
 21
0.2276645171332552
 72
     1
 10
1.430044225383597
 20
0.2276645171332549
 11
1.42612629599224
 21
0.2277578011663822
 72
     1
 10
1.42612629599224
 20
0.2277578011663825
 11
1.426033011959112
 21
0.2277578011663825
 72
     1
 10
1.426033011959111
 20
0.2277578011663825
 11
1.33489451159349
 21
0.2277578011663825
 72
     1
 10
1.334894511593491
 20
0.2277578011663825
 11
1.334894511593491
 21
0.0926825211976832
 72
     1
 10
1.334894511593491
 20
0.0926825211976832
 11
1.358588656007891
 21
0.0926825211976832
 72
     1
 10
1.358588656007891
 20
0.0926825211976832
 11
1.358588656007891
 21
0.0947347699264896
 72
     1
 10
1.358588656007891
 20
0.0947347699264896
 11
1.358588656007891
 21
0.1001452438478876
 72
     1
 10
1.358588656007891
 20
0.1001452438478875
 11
1.358588656007891
 21
0.1079811026306024
 72
     1
 10
1.358588656007891
 20
0.1079811026306024
 11
1.358588656007891
 21
0.1170296538439752
 72
     1
 10
1.358588656007891
 20
0.1170296538439753
 11
1.358588656007891
 21
0.1262647731236032
 72
     1
 10
1.358588656007891
 20
0.1262647731236031
 11
1.358588656007891
 21
0.1347536201382103
 72
     1
 10
1.358588656007891
 20
0.1347536201382104
 11
1.358588656007891
 21
0.1412835024571394
 72
     1
 10
1.358588656007891
 20
0.1412835024571393
 11
1.358588656007891
 21
0.1448282957159864
 72
     1
 10
1.358588656007891
 20
0.1448282957159865
 11
1.362320017332992
 21
0.1448282957159865
 72
     1
 10
1.362320017332992
 20
0.1448282957159865
 11
1.369409603850688
 21
0.1448282957159865
 72
     1
 10
1.369409603850688
 20
0.1448282957159865
 11
1.378738007163443
 21
0.1448282957159865
 72
     1
 10
1.378738007163443
 20
0.1448282957159865
 11
1.388999250807475
 21
0.1448282957159865
 72
     1
 10
1.388999250807473
 20
0.1448282957159865
 11
1.399260494451505
 21
0.1448282957159865
 72
     1
 10
1.399260494451506
 20
0.1448282957159865
 11
1.408215761631749
 21
0.1448282957159865
 72
     1
 10
1.408215761631748
 20
0.1448282957159865
 11
1.414745643950677
 21
0.1448282957159865
 72
     1
 10
1.414745643950678
 20
0.1448282957159865
 11
1.41773073301076
 21
0.1448282957159865
 72
     1
 10
1.417730733010761
 20
0.1448282957159865
 11
1.420062833838949
 21
0.1420297747221594
 72
     1
 10
1.420062833838949
 20
0.1420297747221597
 11
1.425193455660966
 21
0.1359663125688683
 72
     1
 10
1.425193455660965
 20
0.1359663125688683
 11
1.432283042178659
 21
0.1275707495873888
 72
     1
 10
1.432283042178659
 20
0.1275707495873886
 11
1.440305469027628
 21
0.1180557782083779
 72
     1
 10
1.440305469027629
 20
0.1180557782083781
 11
1.448234611843471
 21
0.1087273748956225
 72
     1
 10
1.448234611843471
 20
0.1087273748956225
 11
1.455044346261782
 21
0.1006116640135252
 72
     1
 10
1.455044346261782
 20
0.1006116640135252
 11
1.459895115984414
 21
0.0948280539596167
 72
     1
 10
1.459895115984414
 20
0.0948280539596169
 11
1.461760796646965
 21
0.0926825211976832
 72
     1
 10
1.461760796646967
 20
0.0926825211976832
 11
1.49254452757906
 21
0.0926825211976832
 72
     1
 10
1.492544527579059
 20
0.0926825211976832
 11
1.490678846916508
 21
0.0948280539596169
 72
     1
 10
1.490678846916508
 20
0.0948280539596169
 11
1.48564150912762
 21
0.100518379980398
 72
     1
 10
1.48564150912762
 20
0.1005183799803981
 11
1.478458638576797
 21
0.1088206589287502
 72
     1
 10
1.478458638576798
 20
0.1088206589287502
 11
1.470063075595318
 21
0.1183356303077609
 72
     1
 10
1.470063075595317
 20
0.118335630307761
 11
1.461480944547582
 21
0.1282237378192818
 72
     1
 10
1.461480944547582
 20
0.1282237378192818
 11
1.453551801731739
 21
0.1372722890326546
 72
     1
 10
1.45355180173174
 20
0.1372722890326546
 11
1.447395055545323
 21
0.1444551595834761
 72
     1
 10
1.447395055545323
 20
0.1444551595834759
 11
1.443756978253349
 21
0.1485596570410882
 97
        0
 75
     0
 76
     1
 98
        1
 10
-0.3743130907707726
 20
-0.2500502867693841
1001
ACAD
1010
0.0
1020
0.0
1030
0.0
  0
HATCH
  5
6A39
330
6A34
100
AcDbEntity
  8
Kawneer Logo-English
100
AcDbHatch
 10
0.0
 20
0.0
 30
0.0
210
0.0
220
0.0
230
1.0
  2
SOLID
 70
     1
 71
     0
 91
        1
 92
        1
 93
       87
 72
     1
 10
1.205602841678699
 20
0.1525708704655737
 11
1.207468522341251
 21
0.1525708704655737
 72
     1
 10
1.207468522341252
 20
0.1525708704655737
 11
1.211199883666355
 21
0.1525708704655737
 72
     1
 10
1.211199883666355
 20
0.1525708704655737
 11
1.216517073554626
 21
0.1525708704655737
 72
     1
 10
1.216517073554626
 20
0.1525708704655737
 11
1.223046955873555
 21
0.1525708704655737
 72
     1
 10
1.223046955873553
 20
0.1525708704655737
 11
1.230602962556885
 21
0.1525708704655737
 72
     1
 10
1.230602962556885
 20
0.1525708704655737
 11
1.238998525538365
 21
0.1525708704655737
 72
     1
 10
1.238998525538365
 20
0.1525708704655737
 11
1.247767224652354
 21
0.1525708704655737
 72
     1
 10
1.247767224652355
 20
0.1525708704655737
 11
1.256815775865728
 21
0.1525708704655737
 72
     1
 10
1.256815775865729
 20
0.1525708704655737
 11
1.265771043045974
 21
0.1525708704655737
 72
     1
 10
1.265771043045973
 20
0.1525708704655737
 11
1.274446458126836
 21
0.1525708704655737
 72
     1
 10
1.274446458126837
 20
0.1525708704655737
 11
1.282562169008935
 21
0.1525708704655737
 72
     1
 10
1.282562169008935
 20
0.1525708704655737
 11
1.289745039559756
 21
0.1525708704655737
 72
     1
 10
1.289745039559755
 20
0.1525708704655737
 11
1.295808501713046
 21
0.1525708704655737
 72
     1
 10
1.295808501713046
 20
0.1525708704655737
 11
1.300472703369423
 21
0.1525708704655737
 72
     1
 10
1.300472703369423
 20
0.1525708704655737
 11
1.303457792429505
 21
0.1525708704655737
 72
     1
 10
1.303457792429505
 20
0.1525708704655737
 11
1.304483916793908
 21
0.1525708704655737
 72
     1
 10
1.304483916793908
 20
0.1525708704655737
 11
1.304483916793908
 21
0.1730000737205081
 72
     1
 10
1.304483916793908
 20
0.1730000737205078
 11
1.303457792429505
 21
0.1730000737205078
 72
     1
 10
1.303457792429505
 20
0.1730000737205078
 11
1.300472703369423
 21
0.1730000737205078
 72
     1
 10
1.300472703369423
 20
0.1730000737205078
 11
1.295808501713045
 21
0.1730000737205078
 72
     1
 10
1.295808501713046
 20
0.1730000737205078
 11
1.289745039559754
 21
0.1730000737205078
 72
     1
 10
1.289745039559755
 20
0.1730000737205078
 11
1.282562169008934
 21
0.1730000737205078
 72
     1
 10
1.282562169008935
 20
0.1730000737205078
 11
1.274446458126837
 21
0.1730000737205078
 72
     1
 10
1.274446458126837
 20
0.1730000737205078
 11
1.265771043045975
 21
0.1730000737205078
 72
     1
 10
1.265771043045973
 20
0.1730000737205078
 11
1.256815775865728
 21
0.1730000737205078
 72
     1
 10
1.256815775865729
 20
0.1730000737205078
 11
1.247767224652355
 21
0.1730000737205078
 72
     1
 10
1.247767224652355
 20
0.1730000737205078
 11
1.238998525538365
 21
0.1730000737205078
 72
     1
 10
1.238998525538365
 20
0.1730000737205078
 11
1.230602962556885
 21
0.1730000737205078
 72
     1
 10
1.230602962556885
 20
0.1730000737205078
 11
1.223046955873553
 21
0.1730000737205078
 72
     1
 10
1.223046955873553
 20
0.1730000737205078
 11
1.216517073554625
 21
0.1730000737205078
 72
     1
 10
1.216517073554626
 20
0.1730000737205078
 11
1.211199883666355
 21
0.1730000737205078
 72
     1
 10
1.211199883666355
 20
0.1730000737205078
 11
1.207468522341252
 21
0.1730000737205078
 72
     1
 10
1.207468522341252
 20
0.1730000737205078
 11
1.205602841678701
 21
0.1730000737205078
 72
     1
 10
1.205602841678699
 20
0.1730000737205078
 11
1.205602841678699
 21
0.1754254585818243
 72
     1
 10
1.205602841678699
 20
0.1754254585818245
 11
1.205602841678699
 21
0.1794366720063095
 72
     1
 10
1.205602841678699
 20
0.1794366720063094
 11
1.205602841678699
 21
0.1843807257620694
 72
     1
 10
1.205602841678699
 20
0.1843807257620694
 11
1.205602841678699
 21
0.1898844837165951
 72
     1
 10
1.205602841678699
 20
0.1898844837165951
 11
1.205602841678699
 21
0.1952949576379935
 72
     1
 10
1.205602841678699
 20
0.1952949576379937
 11
1.205602841678699
 21
0.2003322954268815
 72
     1
 10
1.205602841678699
 20
0.2003322954268814
 11
1.205602841678699
 21
0.2042502248182386
 72
     1
 10
1.205602841678699
 20
0.2042502248182386
 11
1.205602841678699
 21
0.206675609679555
 72
     1
 10
1.205602841678699
 20
0.206675609679555
 11
1.207468522341251
 21
0.206675609679555
 72
     1
 10
1.207468522341252
 20
0.206675609679555
 11
1.211293167699483
 21
0.206675609679555
 72
     1
 10
1.211293167699483
 20
0.206675609679555
 11
1.21670364162088
 21
0.206675609679555
 72
     1
 10
1.216703641620879
 20
0.206675609679555
 11
1.223420092006063
 21
0.206675609679555
 72
     1
 10
1.223420092006064
 20
0.206675609679555
 11
1.231255950788778
 21
0.206675609679555
 72
     1
 10
1.231255950788778
 20
0.206675609679555
 11
1.239744797803386
 21
0.206675609679555
 72
     1
 10
1.239744797803385
 20
0.206675609679555
 11
1.248886633049885
 21
0.206675609679555
 72
     1
 10
1.248886633049885
 20
0.206675609679555
 11
1.258121752329513
 21
0.206675609679555
 72
     1
 10
1.258121752329514
 20
0.206675609679555
 11
1.267356871609143
 21
0.206675609679555
 72
     1
 10
1.267356871609142
 20
0.206675609679555
 11
1.276218854756259
 21
0.206675609679555
 72
     1
 10
1.276218854756259
 20
0.206675609679555
 11
1.284521133704611
 21
0.206675609679555
 72
     1
 10
1.284521133704611
 20
0.206675609679555
 11
1.291890572321688
 21
0.206675609679555
 72
     1
 10
1.291890572321688
 20
0.206675609679555
 11
1.298140602541234
 21
0.206675609679555
 72
     1
 10
1.298140602541234
 20
0.206675609679555
 11
1.30289808823074
 21
0.206675609679555
 72
     1
 10
1.30289808823074
 20
0.206675609679555
 11
1.305976461323949
 21
0.206675609679555
 72
     1
 10
1.305976461323949
 20
0.206675609679555
 11
1.30709586972148
 21
0.206675609679555
 72
     1
 10
1.307095869721479
 20
0.206675609679555
 11
1.307095869721479
 21
0.2277578011663822
 72
     1
 10
1.307095869721479
 20
0.2277578011663825
 11
1.304577200827036
 21
0.2277578011663825
 72
     1
 10
1.304577200827037
 20
0.2277578011663825
 11
1.182188549363684
 21
0.2277578011663825
 72
     1
 10
1.182188549363684
 20
0.2277578011663825
 11
1.182188549363684
 21
0.0926825211976832
 72
     1
 10
1.182188549363684
 20
0.0926825211976832
 11
1.311853355410986
 21
0.0926825211976832
 72
     1
 10
1.311853355410985
 20
0.0926825211976832
 11
1.311853355410985
 21
0.113671428651383
 72
     1
 10
1.311853355410985
 20
0.1136714286513832
 11
1.310733947013454
 21
0.1136714286513832
 72
     1
 10
1.310733947013455
 20
0.1136714286513832
 11
1.307469005853991
 21
0.1136714286513832
 72
     1
 10
1.307469005853991
 20
0.1136714286513832
 11
1.302431668065102
 21
0.1136714286513832
 72
     1
 10
1.302431668065103
 20
0.1136714286513832
 11
1.295901785746174
 21
0.1136714286513832
 72
     1
 10
1.295901785746174
 20
0.1136714286513832
 11
1.288159210996586
 21
0.1136714286513832
 72
     1
 10
1.288159210996587
 20
0.1136714286513832
 11
1.279483795915724
 21
0.1136714286513832
 72
     1
 10
1.279483795915723
 20
0.1136714286513832
 11
1.270155392602968
 21
0.1136714286513832
 72
     1
 10
1.270155392602969
 20
0.1136714286513832
 11
1.260547137190832
 21
0.1136714286513832
 72
     1
 10
1.260547137190831
 20
0.1136714286513832
 11
1.250752313712437
 21
0.1136714286513832
 72
     1
 10
1.250752313712437
 20
0.1136714286513832
 11
1.241330626366554
 21
0.1136714286513832
 72
     1
 10
1.241330626366555
 20
0.1136714286513832
 11
1.23237535918631
 21
0.1136714286513832
 72
     1
 10
1.232375359186308
 20
0.1136714286513832
 11
1.224166364271082
 21
0.1136714286513832
 72
     1
 10
1.224166364271083
 20
0.1136714286513832
 11
1.217170061786517
 21
0.1136714286513832
 72
     1
 10
1.217170061786517
 20
0.1136714286513832
 11
1.211479735765737
 21
0.1136714286513832
 72
     1
 10
1.211479735765737
 20
0.1136714286513832
 11
1.20756180637438
 21
0.1136714286513832
 72
     1
 10
1.207561806374379
 20
0.1136714286513832
 11
1.2056028416787
 21
0.1136714286513832
 72
     1
 10
1.205602841678699
 20
0.1136714286513832
 11
1.205602841678699
 21
0.1163766656120825
 72
     1
 10
1.205602841678699
 20
0.1163766656120823
 11
1.205602841678699
 21
0.1209475832353323
 72
     1
 10
1.205602841678699
 20
0.1209475832353325
 11
1.205602841678699
 21
0.1267311932892411
 72
     1
 10
1.205602841678699
 20
0.1267311932892408
 11
1.205602841678699
 21
0.1330745075419143
 72
     1
 10
1.205602841678699
 20
0.1330745075419144
 11
1.205602841678699
 21
0.1395111058277156
 72
     1
 10
1.205602841678699
 20
0.1395111058277158
 11
1.205602841678699
 21
0.1452947158816239
 72
     1
 10
1.205602841678699
 20
0.145294715881624
 11
1.205602841678699
 21
0.1498656335048746
 72
     1
 10
1.205602841678699
 20
0.1498656335048745
 11
1.205602841678699
 21
0.1525708704655738
 97
        0
 75
     0
 76
     1
 98
        1
 10
-0.3743130907707726
 20
-0.2500502867693841
1001
ACAD
1010
0.0
1020
0.0
1030
0.0
  0
HATCH
  5
6A3A
330
6A34
100
AcDbEntity
  8
Kawneer Logo-English
100
AcDbHatch
 10
0.0
 20
0.0
 30
0.0
210
0.0
220
0.0
230
1.0
  2
SOLID
 70
     1
 71
     0
 91
        1
 92
        1
 93
       87
 72
     1
 10
1.049352086190046
 20
0.1525708704655737
 11
1.051217766852597
 21
0.1525708704655737
 72
     1
 10
1.051217766852596
 20
0.1525708704655737
 11
1.054949128177699
 21
0.1525708704655737
 72
     1
 10
1.0549491281777
 20
0.1525708704655737
 11
1.060173034032843
 21
0.1525708704655737
 72
     1
 10
1.060173034032843
 20
0.1525708704655737
 11
1.0667962003849
 21
0.1525708704655737
 72
     1
 10
1.0667962003849
 20
0.1525708704655737
 11
1.074352207068231
 21
0.1525708704655737
 72
     1
 10
1.074352207068232
 20
0.1525708704655737
 11
1.082747770049711
 21
0.1525708704655737
 72
     1
 10
1.082747770049711
 20
0.1525708704655737
 11
1.0915164691637
 21
0.1525708704655737
 72
     1
 10
1.091516469163701
 20
0.1525708704655737
 11
1.100565020377075
 21
0.1525708704655737
 72
     1
 10
1.100565020377073
 20
0.1525708704655737
 11
1.109520287557319
 21
0.1525708704655737
 72
     1
 10
1.10952028755732
 20
0.1525708704655737
 11
1.118195702638183
 21
0.1525708704655737
 72
     1
 10
1.118195702638182
 20
0.1525708704655737
 11
1.126218129487151
 21
0.1525708704655737
 72
     1
 10
1.126218129487152
 20
0.1525708704655737
 11
1.133401000037974
 21
0.1525708704655737
 72
     1
 10
1.133401000037974
 20
0.1525708704655737
 11
1.139557746224391
 21
0.1525708704655737
 72
     1
 10
1.139557746224392
 20
0.1525708704655737
 11
1.14422194788077
 21
0.1525708704655737
 72
     1
 10
1.144221947880769
 20
0.1525708704655737
 11
1.147207036940851
 21
0.1525708704655737
 72
     1
 10
1.147207036940852
 20
0.1525708704655737
 11
1.148233161305255
 21
0.1525708704655737
 72
     1
 10
1.148233161305255
 20
0.1525708704655737
 11
1.148233161305255
 21
0.1730000737205081
 72
     1
 10
1.148233161305255
 20
0.1730000737205078
 11
1.147207036940852
 21
0.1730000737205078
 72
     1
 10
1.147207036940852
 20
0.1730000737205078
 11
1.14422194788077
 21
0.1730000737205078
 72
     1
 10
1.144221947880769
 20
0.1730000737205078
 11
1.139557746224391
 21
0.1730000737205078
 72
     1
 10
1.139557746224392
 20
0.1730000737205078
 11
1.133494284071101
 21
0.1730000737205078
 72
     1
 10
1.133494284071101
 20
0.1730000737205078
 11
1.126218129487152
 21
0.1730000737205078
 72
     1
 10
1.126218129487152
 20
0.1730000737205078
 11
1.118195702638183
 21
0.1730000737205078
 72
     1
 10
1.118195702638182
 20
0.1730000737205078
 11
1.10952028755732
 21
0.1730000737205078
 72
     1
 10
1.10952028755732
 20
0.1730000737205078
 11
1.100565020377074
 21
0.1730000737205078
 72
     1
 10
1.100565020377073
 20
0.1730000737205078
 11
1.0915164691637
 21
0.1730000737205078
 72
     1
 10
1.091516469163701
 20
0.1730000737205078
 11
1.082747770049712
 21
0.1730000737205078
 72
     1
 10
1.082747770049711
 20
0.1730000737205078
 11
1.074352207068231
 21
0.1730000737205078
 72
     1
 10
1.074352207068232
 20
0.1730000737205078
 11
1.0667962003849
 21
0.1730000737205078
 72
     1
 10
1.0667962003849
 20
0.1730000737205078
 11
1.060173034032843
 21
0.1730000737205078
 72
     1
 10
1.060173034032843
 20
0.1730000737205078
 11
1.054949128177701
 21
0.1730000737205078
 72
     1
 10
1.0549491281777
 20
0.1730000737205078
 11
1.051217766852597
 21
0.1730000737205078
 72
     1
 10
1.051217766852596
 20
0.1730000737205078
 11
1.049352086190045
 21
0.1730000737205078
 72
     1
 10
1.049352086190046
 20
0.1730000737205078
 11
1.049352086190046
 21
0.1754254585818243
 72
     1
 10
1.049352086190046
 20
0.1754254585818245
 11
1.049352086190046
 21
0.1794366720063095
 72
     1
 10
1.049352086190046
 20
0.1794366720063094
 11
1.049352086190046
 21
0.1843807257620694
 72
     1
 10
1.049352086190046
 20
0.1843807257620694
 11
1.049352086190046
 21
0.1898844837165951
 72
     1
 10
1.049352086190046
 20
0.1898844837165951
 11
1.049352086190046
 21
0.1952949576379935
 72
     1
 10
1.049352086190046
 20
0.1952949576379937
 11
1.049352086190046
 21
0.2003322954268815
 72
     1
 10
1.049352086190046
 20
0.2003322954268814
 11
1.049352086190046
 21
0.2042502248182386
 72
     1
 10
1.049352086190046
 20
0.2042502248182386
 11
1.049352086190046
 21
0.206675609679555
 72
     1
 10
1.049352086190046
 20
0.206675609679555
 11
1.051217766852597
 21
0.206675609679555
 72
     1
 10
1.051217766852596
 20
0.206675609679555
 11
1.055042412210825
 21
0.206675609679555
 72
     1
 10
1.055042412210827
 20
0.206675609679555
 11
1.060452886132226
 21
0.206675609679555
 72
     1
 10
1.060452886132225
 20
0.206675609679555
 11
1.067169336517409
 21
0.206675609679555
 72
     1
 10
1.06716933651741
 20
0.206675609679555
 11
1.075005195300124
 21
0.206675609679555
 72
     1
 10
1.075005195300123
 20
0.206675609679555
 11
1.083494042314731
 21
0.206675609679555
 72
     1
 10
1.083494042314732
 20
0.206675609679555
 11
1.092542593528105
 21
0.206675609679555
 72
     1
 10
1.092542593528106
 20
0.206675609679555
 11
1.10187099684086
 21
0.206675609679555
 72
     1
 10
1.101870996840861
 20
0.206675609679555
 11
1.111106116120489
 21
0.206675609679555
 72
     1
 10
1.111106116120488
 20
0.206675609679555
 11
1.119968099267605
 21
0.206675609679555
 72
     1
 10
1.119968099267605
 20
0.206675609679555
 11
1.128270378215957
 21
0.206675609679555
 72
     1
 10
1.128270378215957
 20
0.206675609679555
 11
1.135639816833034
 21
0.206675609679555
 72
     1
 10
1.135639816833034
 20
0.206675609679555
 11
1.14188984705258
 21
0.206675609679555
 72
     1
 10
1.141889847052581
 20
0.206675609679555
 11
1.146647332742086
 21
0.206675609679555
 72
     1
 10
1.146647332742086
 20
0.206675609679555
 11
1.149725705835295
 21
0.206675609679555
 72
     1
 10
1.149725705835296
 20
0.206675609679555
 11
1.150845114232827
 21
0.206675609679555
 72
     1
 10
1.150845114232826
 20
0.206675609679555
 11
1.150845114232826
 21
0.2277578011663822
 72
     1
 10
1.150845114232826
 20
0.2277578011663825
 11
1.148326445338383
 21
0.2277578011663825
 72
     1
 10
1.148326445338383
 20
0.2277578011663825
 11
1.025937793875031
 21
0.2277578011663825
 72
     1
 10
1.025937793875032
 20
0.2277578011663825
 11
1.025937793875032
 21
0.0926825211976832
 72
     1
 10
1.025937793875032
 20
0.0926825211976832
 11
1.155602599922332
 21
0.0926825211976832
 72
     1
 10
1.155602599922332
 20
0.0926825211976832
 11
1.155602599922332
 21
0.113671428651383
 72
     1
 10
1.155602599922332
 20
0.1136714286513832
 11
1.154483191524801
 21
0.1136714286513832
 72
     1
 10
1.154483191524799
 20
0.1136714286513832
 11
1.151218250365336
 21
0.1136714286513832
 72
     1
 10
1.151218250365338
 20
0.1136714286513832
 11
1.146180912576449
 21
0.1136714286513832
 72
     1
 10
1.146180912576449
 20
0.1136714286513832
 11
1.13965103025752
 21
0.1136714286513832
 72
     1
 10
1.13965103025752
 20
0.1136714286513832
 11
1.131908455507932
 21
0.1136714286513832
 72
     1
 10
1.131908455507931
 20
0.1136714286513832
 11
1.12323304042707
 21
0.1136714286513832
 72
     1
 10
1.123233040427071
 20
0.1136714286513832
 11
1.113904637114314
 21
0.1136714286513832
 72
     1
 10
1.113904637114314
 20
0.1136714286513832
 11
1.104296381702177
 21
0.1136714286513832
 72
     1
 10
1.104296381702177
 20
0.1136714286513832
 11
1.094501558223783
 21
0.1136714286513832
 72
     1
 10
1.094501558223784
 20
0.1136714286513832
 11
1.085079870877901
 21
0.1136714286513832
 72
     1
 10
1.085079870877899
 20
0.1136714286513832
 11
1.076124603697654
 21
0.1136714286513832
 72
     1
 10
1.076124603697655
 20
0.1136714286513832
 11
1.067915608782429
 21
0.1136714286513832
 72
     1
 10
1.067915608782429
 20
0.1136714286513832
 11
1.060919306297863
 21
0.1136714286513832
 72
     1
 10
1.060919306297863
 20
0.1136714286513832
 11
1.055228980277083
 21
0.1136714286513832
 72
     1
 10
1.055228980277082
 20
0.1136714286513832
 11
1.051311050885725
 21
0.1136714286513832
 72
     1
 10
1.051311050885726
 20
0.1136714286513832
 11
1.049352086190046
 21
0.1136714286513832
 72
     1
 10
1.049352086190046
 20
0.1136714286513832
 11
1.049352086190046
 21
0.1163766656120825
 72
     1
 10
1.049352086190046
 20
0.1163766656120823
 11
1.049352086190046
 21
0.1209475832353323
 72
     1
 10
1.049352086190046
 20
0.1209475832353325
 11
1.049352086190046
 21
0.1267311932892411
 72
     1
 10
1.049352086190046
 20
0.1267311932892408
 11
1.049352086190046
 21
0.1330745075419143
 72
     1
 10
1.049352086190046
 20
0.1330745075419144
 11
1.049352086190046
 21
0.1395111058277156
 72
     1
 10
1.049352086190046
 20
0.1395111058277158
 11
1.049352086190046
 21
0.1452947158816239
 72
     1
 10
1.049352086190046
 20
0.145294715881624
 11
1.049352086190046
 21
0.1498656335048746
 72
     1
 10
1.049352086190046
 20
0.1498656335048745
 11
1.049352086190046
 21
0.1525708704655738
 97
        0
 75
     0
 76
     1
 98
        1
 10
-0.3743130907707726
 20
-0.2500502867693841
1001
ACAD
1010
0.0
1020
0.0
1030
0.0
  0
HATCH
  5
6A3B
330
6A34
100
AcDbEntity
  8
Kawneer Logo-English
100
AcDbHatch
 10
0.0
 20
0.0
 30
0.0
210
0.0
220
0.0
230
1.0
  2
SOLID
 70
     1
 71
     0
 91
        1
 92
        1
 93
       42
 72
     1
 10
0.9725793269260698
 20
0.2277578011663825
 11
0.9725793269260698
 21
0.1354998924032311
 72
     1
 10
0.9725793269260698
 20
0.1354998924032311
 11
0.9729524630585808
 21
0.1264513411898582
 72
     1
 10
0.9729524630585796
 20
0.1264513411898583
 11
0.9729524630585796
 21
0.1255185008585825
 72
     1
 10
0.9729524630585796
 20
0.1255185008585824
 11
0.9731390311248343
 21
0.1238393882622866
 72
     1
 10
0.9731390311248349
 20
0.1238393882622866
 11
0.9717397706279211
 21
0.1254252168254551
 72
     1
 10
0.97173977062792
 20
0.1254252168254551
 11
0.9710867823960281
 21
0.1262647731236031
 72
     1
 10
0.9710867823960294
 20
0.1262647731236031
 11
0.9641837639445897
 21
0.1339140638400625
 72
     1
 10
0.9641837639445899
 20
0.1339140638400624
 11
0.8755639324734129
 21
0.2277578011663823
 72
     1
 10
0.8755639324734115
 20
0.2277578011663825
 11
0.8529891964565429
 21
0.2277578011663825
 72
     1
 10
0.8529891964565434
 20
0.2277578011663825
 11
0.8529891964565434
 21
0.0926825211976832
 72
     1
 10
0.8529891964565434
 20
0.0926825211976832
 11
0.8756572165065401
 21
0.0926825211976832
 72
     1
 10
0.875657216506541
 20
0.0926825211976832
 11
0.875657216506541
 21
0.1927762887435495
 72
     1
 10
0.875657216506541
 20
0.1927762887435495
 11
0.875657216506541
 21
0.1931494248760597
 72
     1
 10
0.875657216506541
 20
0.1931494248760596
 11
0.8755639324734129
 21
0.193988981174208
 72
     1
 10
0.8755639324734115
 20
0.1939889811742079
 11
0.8754706484402849
 21
0.1952949576379935
 72
     1
 10
0.8754706484402859
 20
0.1952949576379937
 11
0.8753773644071577
 21
0.1967875021680344
 72
     1
 10
0.875377364407158
 20
0.1967875021680343
 11
0.8755639324734126
 21
0.1965076500686515
 72
     1
 10
0.8755639324734115
 20
0.1965076500686517
 11
0.8756572165065396
 21
0.1963210820023967
 72
     1
 10
0.875657216506541
 20
0.1963210820023967
 11
0.8764967728046894
 21
0.1954815257042487
 72
     1
 10
0.8764967728046887
 20
0.1954815257042488
 11
0.8781758854009835
 21
0.1936158450416976
 72
     1
 10
0.8781758854009842
 20
0.1936158450416973
 11
0.8797617139641527
 21
0.1917501643791464
 72
     1
 10
0.879761713964152
 20
0.1917501643791466
 11
0.8805079862291723
 21
0.1909106080809982
 72
     1
 10
0.8805079862291727
 20
0.190910608080998
 11
0.8816273946267036
 21
0.1897911996834678
 72
     1
 10
0.8816273946267028
 20
0.1897911996834681
 11
0.884519199653657
 21
0.1867128265902584
 72
     1
 10
0.8845191996536581
 20
0.1867128265902582
 11
0.8891834013100353
 21
0.1818620568676254
 72
     1
 10
0.889183401310035
 20
0.1818620568676252
 11
0.8951535794301982
 21
0.1756120266480794
 72
     1
 10
0.8951535794301985
 20
0.1756120266480794
 11
0.9021498819147662
 21
0.1681493039978751
 72
     1
 10
0.9021498819147669
 20
0.1681493039978752
 11
0.9099857406974814
 21
0.1598470250495227
 72
     1
 10
0.9099857406974813
 20
0.1598470250495225
 11
0.9183813036789613
 21
0.1509850419024051
 72
     1
 10
0.9183813036789612
 20
0.1509850419024052
 11
0.9271500027929521
 21
0.1418432066559046
 72
     1
 10
0.9271500027929509
 20
0.1418432066559046
 11
0.9358254178738118
 21
0.1326080873762767
 72
     1
 10
0.9358254178738132
 20
0.1326080873762767
 11
0.9442209808552931
 21
0.1237461042291589
 72
     1
 10
0.9442209808552931
 20
0.1237461042291589
 11
0.9520568396380092
 21
0.1154438252808068
 72
     1
 10
0.9520568396380092
 20
0.1154438252808068
 11
0.9590531421225751
 21
0.1079811026306025
 72
     1
 10
0.959053142122574
 20
0.1079811026306024
 11
0.9650233202427372
 21
0.101731072411056
 72
     1
 10
0.9650233202427376
 20
0.101731072411056
 11
0.9695942378659868
 21
0.0968803026884232
 72
     1
 10
0.9695942378659871
 20
0.096880302688423
 11
0.9725793269260696
 21
0.0938019295952138
 72
     1
 10
0.9725793269260698
 20
0.093801929595214
 11
0.9736054512904727
 21
0.0926825211976834
 72
     1
 10
0.9736054512904726
 20
0.0926825211976832
 11
0.9952473469760661
 21
0.0926825211976832
 72
     1
 10
0.9952473469760651
 20
0.0926825211976832
 11
0.9952473469760651
 21
0.2277578011663825
 72
     1
 10
0.9952473469760651
 20
0.2277578011663825
 11
0.9927286780816201
 21
0.2277578011663825
 72
     1
 10
0.9927286780816203
 20
0.2277578011663825
 11
0.9725793269260686
 21
0.2277578011663825
 97
        0
 75
     0
 76
     1
 98
        1
 10
-0.3743130907707726
 20
-0.2500502867693841
1001
ACAD
1010
0.0
1020
0.0
1030
0.0
  0
HATCH
  5
6A3C
330
6A34
100
AcDbEntity
  8
Kawneer Logo-English
100
AcDbHatch
 10
0.0
 20
0.0
 30
0.0
210
0.0
220
0.0
230
1.0
  2
SOLID
 70
     1
 71
     0
 91
        2
 92
       16
 93
       32
 72
     1
 10
0.5269615006757409
 20
0.144641727649731
 11
0.5290137494045469
 21
0.148652941074216
 72
     1
 10
0.5290137494045464
 20
0.1486529410742159
 11
0.5322786905640116
 21
0.1551828233931449
 72
     1
 10
0.532278690564012
 20
0.1551828233931452
 11
0.5364764720547521
 21
0.1633918183083696
 72
     1
 10
0.5364764720547526
 20
0.1633918183083696
 11
0.5409541056448736
 21
0.1722538014554874
 72
     1
 10
0.5409541056448726
 20
0.1722538014554873
 11
0.545338455201869
 21
0.1808359325032223
 72
     1
 10
0.5453384552018701
 20
0.1808359325032223
 11
0.5490698165269726
 21
0.1882053711202994
 72
     1
 10
0.549069816526973
 20
0.1882053711202996
 11
0.5515884854214162
 21
0.1932427089091875
 72
     1
 10
0.5515884854214148
 20
0.1932427089091872
 11
0.5526146097858177
 21
0.1952016736048658
 72
     1
 10
0.5526146097858194
 20
0.1952016736048658
 11
0.552801177852074
 21
0.195761377803631
 72
     1
 10
0.5528011778520723
 20
0.1957613778036309
 11
0.5533608820508379
 21
0.1970673542674166
 72
     1
 10
0.5533608820508378
 20
0.1970673542674169
 11
0.5542004383489863
 21
0.1990263189630955
 72
     1
 10
0.5542004383489872
 20
0.1990263189630952
 11
0.5550399946471356
 21
0.2012651357581567
 72
     1
 10
0.5550399946471352
 20
0.2012651357581567
 11
0.5555064148127727
 21
0.2001457273606265
 72
     1
 10
0.5555064148127729
 20
0.2001457273606264
 11
0.5560661190115385
 21
0.198933034929968
 72
     1
 10
0.5560661190115379
 20
0.198933034929968
 11
0.5567191072434298
 21
0.197533774433055
 72
     1
 10
0.5567191072434304
 20
0.197533774433055
 11
0.5574653795084506
 21
0.1959479458698865
 72
     1
 10
0.557465379508451
 20
0.1959479458698865
 11
0.5583049358065995
 21
0.1942688332735902
 72
     1
 10
0.5583049358065986
 20
0.1942688332735903
 11
0.5606370366347874
 21
0.1896046316172126
 72
     1
 10
0.5606370366347871
 20
0.1896046316172126
 11
0.5639952618273804
 21
0.1828881812320289
 72
     1
 10
0.5639952618273814
 20
0.1828881812320287
 11
0.5680064752518651
 21
0.1748657543830587
 72
     1
 10
0.5680064752518637
 20
0.1748657543830589
 11
0.57239082480886
 21
0.1661903393021966
 72
     1
 10
0.5723908248088612
 20
0.1661903393021967
 11
0.5765886062996012
 21
0.1577947763207168
 72
     1
 10
0.5765886062996
 20
0.1577947763207165
 11
0.5803199676247008
 21
0.1503320536705122
 72
     1
 10
0.5803199676247015
 20
0.1503320536705122
 11
0.5831184886185295
 21
0.144641727649731
 72
     1
 10
0.5831184886185295
 20
0.144641727649731
 11
0.5791072751940441
 21
0.144641727649731
 72
     1
 10
0.5791072751940436
 20
0.144641727649731
 11
0.5724841088419869
 21
0.144641727649731
 72
     1
 10
0.5724841088419872
 20
0.144641727649731
 11
0.5641818298936356
 21
0.144641727649731
 72
     1
 10
0.5641818298936352
 20
0.144641727649731
 11
0.5550399946471351
 21
0.144641727649731
 72
     1
 10
0.5550399946471352
 20
0.144641727649731
 11
0.5458981594006351
 21
0.144641727649731
 72
     1
 10
0.5458981594006352
 20
0.144641727649731
 11
0.5375958804522815
 21
0.144641727649731
 72
     1
 10
0.5375958804522814
 20
0.144641727649731
 11
0.5310659981333528
 21
0.144641727649731
 72
     1
 10
0.5310659981333524
 20
0.144641727649731
 11
0.5269615006757405
 21
0.144641727649731
 97
        0
 92
        1
 93
      141
 72
     1
 10
0.5656743744236757
 20
0.2277578011663825
 11
0.544405614870593
 21
0.2277578011663825
 72
     1
 10
0.544405614870593
 20
0.2277578011663825
 11
0.4748157261574382
 21
0.0934287934627039
 72
     1
 10
0.4748157261574378
 20
0.0934287934627039
 11
0.4729500454948865
 21
0.0955743262246376
 72
     1
 10
0.4729500454948874
 20
0.0955743262246376
 11
0.4699649564348049
 21
0.0991191194834847
 72
     1
 10
0.4699649564348043
 20
0.0991191194834847
 11
0.4661403110765752
 21
0.1036900371067346
 72
     1
 10
0.4661403110765754
 20
0.1036900371067347
 11
0.4615693934533244
 21
0.1091005110281331
 72
     1
 10
0.461569393453325
 20
0.109100511028133
 11
0.456345487598182
 21
0.1152572572145517
 72
     1
 10
0.4563454875981812
 20
0.1152572572145516
 11
0.4506551615774008
 21
0.1219737075997353
 72
     1
 10
0.4506551615774015
 20
0.1219737075997354
 11
0.4447782674903648
 21
0.1290632941174296
 72
     1
 10
0.4447782674903636
 20
0.1290632941174296
 11
0.4387148053370722
 21
0.1362461646682511
 72
     1
 10
0.4387148053370727
 20
0.1362461646682512
 11
0.4326513431837832
 21
0.1433357511859454
 72
     1
 10
0.4326513431837844
 20
0.1433357511859453
 11
0.4268677331298759
 21
0.1502387696373844
 72
     1
 10
0.4268677331298756
 20
0.1502387696373844
 11
0.4214572592084763
 21
0.1566753679231857
 72
     1
 10
0.4214572592084754
 20
0.1566753679231858
 11
0.4165132054527153
 21
0.1625522620102216
 72
     1
 10
0.4165132054527163
 20
0.1625522620102216
 11
0.4123154239619763
 21
0.1674963157659821
 72
     1
 10
0.4123154239619753
 20
0.1674963157659822
 11
0.4088639147362555
 21
0.1715075291904667
 72
     1
 10
0.4088639147362568
 20
0.1715075291904669
 11
0.4065318139080681
 21
0.1743993342174211
 72
     1
 10
0.4065318139080665
 20
0.1743993342174211
 11
0.405319121477409
 21
0.1757985947143345
 72
     1
 10
0.4053191214774104
 20
0.1757985947143345
 11
0.4067183819743243
 21
0.1769180031118651
 72
     1
 10
0.4067183819743235
 20
0.1769180031118651
 11
0.4094236189350213
 21
0.1788769678075437
 72
     1
 10
0.4094236189350218
 20
0.1788769678075437
 11
0.4132482642932526
 21
0.1816754888013702
 72
     1
 10
0.4132482642932525
 20
0.1816754888013703
 11
0.4179124659496298
 21
0.1852202820602174
 72
     1
 10
0.417912465949629
 20
0.1852202820602174
 11
0.4232296558379
 21
0.189138211451575
 72
     1
 10
0.4232296558379001
 20
0.1891382114515751
 11
0.4291065499249351
 21
0.1935225610085696
 72
     1
 10
0.4291065499249367
 20
0.1935225610085698
 11
0.4352632961113562
 21
0.1981867626649482
 72
     1
 10
0.4352632961113554
 20
0.1981867626649479
 11
0.4416066103640296
 21
0.2028509643213252
 72
     1
 10
0.4416066103640293
 20
0.2028509643213252
 11
0.4479499246167016
 21
0.2076084500108307
 72
     1
 10
0.4479499246167018
 20
0.2076084500108307
 11
0.4540133867699932
 21
0.2120860836009535
 72
     1
 10
0.4540133867699927
 20
0.2120860836009535
 11
0.4596104287576467
 21
0.2162838650916932
 72
     1
 10
0.4596104287576468
 20
0.216283865091693
 11
0.4646477665465351
 21
0.2200152264167952
 72
     1
 10
0.464647766546535
 20
0.2200152264167951
 11
0.4689388320704013
 21
0.223186883543132
 72
     1
 10
0.4689388320704016
 20
0.2231868835431323
 11
0.4721104891967386
 21
0.2256122684044488
 72
     1
 10
0.4721104891967376
 20
0.2256122684044488
 11
0.4742560219586717
 21
0.2271980969676172
 72
     1
 10
0.4742560219586727
 20
0.2271980969676173
 11
0.475002294223693
 21
0.2277578011663825
 72
     1
 10
0.4750022942236929
 20
0.2277578011663825
 11
0.4674462875403612
 21
0.2277578011663825
 72
     1
 10
0.4674462875403611
 20
0.2277578011663825
 11
0.4395543616352215
 21
0.2277578011663825
 72
     1
 10
0.439554361635222
 20
0.2277578011663825
 11
0.4386215213039473
 21
0.2270115289013622
 72
     1
 10
0.4386215213039466
 20
0.2270115289013622
 11
0.4359162843432469
 21
0.2250525642056836
 72
     1
 10
0.4359162843432465
 20
0.2250525642056836
 11
0.4318117868856346
 21
0.2220674751456017
 72
     1
 10
0.4318117868856351
 20
0.2220674751456017
 11
0.4264013129642376
 21
0.2180562617211167
 72
     1
 10
0.4264013129642379
 20
0.2180562617211168
 11
0.4200579987115638
 21
0.2132987760316117
 72
     1
 10
0.4200579987115641
 20
0.2132987760316114
 11
0.4128751281607416
 21
0.2079815861433408
 72
     1
 10
0.4128751281607408
 20
0.2079815861433408
 11
0.4051325534111546
 21
0.20229126012256
 72
     1
 10
0.4051325534111552
 20
0.20229126012256
 11
0.397016842529058
 21
0.1963210820023964
 72
     1
 10
0.3970168425290583
 20
0.1963210820023967
 11
0.3889011316469611
 21
0.1903509038822331
 72
     1
 10
0.3889011316469611
 20
0.190350903882233
 11
0.3808787047979902
 21
0.1844740097951972
 72
     1
 10
0.3808787047979898
 20
0.1844740097951974
 11
0.3733226981146581
 21
0.1787836837744166
 72
     1
 10
0.373322698114658
 20
0.1787836837744166
 11
0.3663263956300919
 21
0.173653061952401
 72
     1
 10
0.3663263956300931
 20
0.173653061952401
 11
0.3601696494436735
 21
0.169082144329151
 72
     1
 10
0.3601696494436726
 20
0.1690821443291508
 11
0.3550390276216579
 21
0.1653507830040483
 72
     1
 10
0.3550390276216584
 20
0.1653507830040482
 11
0.3513076662965558
 21
0.1625522620102218
 72
     1
 10
0.3513076662965551
 20
0.1625522620102216
 11
0.3490688495014928
 21
0.1609664334470531
 72
     1
 10
0.3490688495014926
 20
0.1609664334470531
 11
0.3490688495014926
 21
0.1631119662089868
 72
     1
 10
0.3490688495014926
 20
0.1631119662089868
 11
0.3490688495014926
 21
0.1662836233353237
 72
     1
 10
0.3490688495014926
 20
0.1662836233353238
 11
0.3490688495014926
 21
0.1702948367598088
 72
     1
 10
0.3490688495014926
 20
0.1702948367598088
 11
0.3490688495014926
 21
0.1749590384161865
 72
     1
 10
0.3490688495014926
 20
0.1749590384161865
 11
0.3490688495014926
 21
0.1801829442713294
 72
     1
 10
0.3490688495014926
 20
0.1801829442713296
 11
0.3490688495014926
 21
0.185779986258983
 72
     1
 10
0.3490688495014926
 20
0.1857799862589829
 11
0.3490688495014926
 21
0.1916568803460187
 72
     1
 10
0.3490688495014926
 20
0.1916568803460186
 11
0.3490688495014926
 21
0.1975337744330549
 72
     1
 10
0.3490688495014926
 20
0.197533774433055
 11
0.3490688495014926
 21
0.2033173844869632
 72
     1
 10
0.3490688495014926
 20
0.2033173844869631
 11
0.3490688495014926
 21
0.2088211424414888
 72
     1
 10
0.3490688495014926
 20
0.2088211424414888
 11
0.3490688495014926
 21
0.2139517642635044
 72
     1
 10
0.3490688495014926
 20
0.2139517642635044
 11
0.3490688495014926
 21
0.2185226818867544
 72
     1
 10
0.3490688495014926
 20
0.2185226818867545
 11
0.3490688495014926
 21
0.2222540432118567
 72
     1
 10
0.3490688495014926
 20
0.2222540432118567
 11
0.3490688495014926
 21
0.2252391322719387
 72
     1
 10
0.3490688495014926
 20
0.2252391322719387
 11
0.3490688495014926
 21
0.2271048129344895
 72
     1
 10
0.3490688495014926
 20
0.2271048129344895
 11
0.3490688495014926
 21
0.2277578011663825
 72
     1
 10
0.3490688495014926
 20
0.2277578011663825
 11
0.3258411252527322
 21
0.2277578011663825
 72
     1
 10
0.3258411252527336
 20
0.2277578011663825
 11
0.3258411252527336
 21
0.0926825211976832
 72
     1
 10
0.3258411252527336
 20
0.0926825211976832
 11
0.3486957133689848
 21
0.0926825211976832
 72
     1
 10
0.3486957133689845
 20
0.0926825211976832
 11
0.3486957133689845
 21
0.0943616337939795
 72
     1
 10
0.3486957133689845
 20
0.0943616337939795
 11
0.3486957133689845
 21
0.0988392673841017
 72
     1
 10
0.3486957133689845
 20
0.0988392673841017
 11
0.3486957133689845
 21
0.1051825816367752
 72
     1
 10
0.3486957133689845
 20
0.1051825816367753
 11
0.3486957133689845
 21
0.1125520202538523
 72
     1
 10
0.3486957133689845
 20
0.1125520202538524
 11
0.3486957133689845
 21
0.1200147429040567
 72
     1
 10
0.3486957133689845
 20
0.1200147429040567
 11
0.3486957133689845
 21
0.1267311932892408
 72
     1
 10
0.3486957133689845
 20
0.1267311932892408
 11
0.3486957133689845
 21
0.1317685310781287
 72
     1
 10
0.3486957133689845
 20
0.1317685310781289
 11
0.3486957133689845
 21
0.1342871999725727
 72
     1
 10
0.3486957133689845
 20
0.1342871999725725
 11
0.3507479620977905
 21
0.1356864604694859
 72
     1
 10
0.35074796209779
 20
0.1356864604694859
 11
0.3548524595554018
 21
0.1387648335626952
 72
     1
 10
0.3548524595554015
 20
0.1387648335626952
 11
0.3605427855761835
 21
0.1428693310203079
 72
     1
 10
0.3605427855761842
 20
0.1428693310203079
 11
0.3668860998288565
 21
0.1476268167098129
 72
     1
 10
0.3668860998288568
 20
0.1476268167098129
 11
0.373322698114659
 21
0.1522910183661906
 72
     1
 10
0.373322698114658
 20
0.1522910183661908
 11
0.3791995922016947
 21
0.1565820838900582
 72
     1
 10
0.3791995922016946
 20
0.1565820838900582
 11
0.3836772257918156
 21
0.1599403090826502
 72
     1
 10
0.3836772257918159
 20
0.1599403090826503
 11
0.386195894686261
 21
0.1618059897452011
 72
     1
 10
0.3861958946862609
 20
0.1618059897452011
 11
0.3873153030837921
 21
0.1604067292482882
 72
     1
 10
0.3873153030837915
 20
0.1604067292482878
 11
0.3894608358457238
 21
0.1577947763207163
 72
     1
 10
0.3894608358457248
 20
0.1577947763207165
 11
0.3925392089389353
 21
0.1541566990287417
 72
     1
 10
0.3925392089389348
 20
0.1541566990287417
 11
0.396457138330292
 21
0.149492497372364
 72
     1
 10
0.3964571383302933
 20
0.149492497372364
 11
0.4009347719204161
 21
0.1442685915172211
 72
     1
 10
0.4009347719204146
 20
0.1442685915172209
 11
0.4057855416430466
 21
0.138391697430185
 72
     1
 10
0.4057855416430463
 20
0.1383916974301853
 11
0.4109161634650628
 21
0.1322349512437666
 72
     1
 10
0.410916163465064
 20
0.1322349512437666
 11
0.4162333533533335
 21
0.1259849210242201
 72
     1
 10
0.4162333533533334
 20
0.1259849210242201
 11
0.4215505432416044
 21
0.1196416067715466
 72
     1
 10
0.4215505432416045
 20
0.1196416067715466
 11
0.4265878810304927
 21
0.113671428651383
 72
     1
 10
0.4265878810304931
 20
0.1136714286513832
 11
0.4312520826868704
 21
0.1079811026306024
 72
     1
 10
0.4312520826868696
 20
0.1079811026306024
 11
0.4355431482107378
 21
0.1029437648417141
 72
     1
 10
0.435543148210738
 20
0.1029437648417139
 11
0.4390879414695842
 21
0.0987459833509739
 72
     1
 10
0.4390879414695843
 20
0.0987459833509741
 11
0.4417931784302841
 21
0.0954810421915098
 72
     1
 10
0.4417931784302845
 20
0.0954810421915096
 11
0.4435655750597076
 21
0.0934287934627037
 72
     1
 10
0.4435655750597074
 20
0.0934287934627039
 11
0.4442185632915993
 21
0.0926825211976832
 72
     1
 10
0.4442185632915985
 20
0.0926825211976832
 11
0.4743493059918004
 21
0.0926825211976832
 72
     1
 10
0.4743493059918001
 20
0.0926825211976832
 11
0.4753754303562029
 21
0.0926825211976832
 72
     1
 10
0.4753754303562033
 20
0.0926825211976832
 11
0.5008419714000258
 21
0.0926825211976832
 72
     1
 10
0.5008419714000265
 20
0.0926825211976832
 11
0.5014949596319184
 21
0.0939884976614689
 72
     1
 10
0.501494959631919
 20
0.0939884976614688
 11
0.5031740722282155
 21
0.0973467228540609
 72
     1
 10
0.503174072228215
 20
0.0973467228540612
 11
0.5055061730564038
 21
0.1021042085435666
 72
     1
 10
0.505506173056403
 20
0.1021042085435665
 11
0.5083046940502291
 21
0.1077012505312196
 72
     1
 10
0.5083046940502292
 20
0.1077012505312194
 11
0.5111032150440553
 21
0.1134848605851279
 72
     1
 10
0.5111032150440549
 20
0.1134848605851281
 11
0.5137151679716264
 21
0.1186154824071433
 72
     1
 10
0.5137151679716277
 20
0.1186154824071433
 11
0.5156741326673071
 21
0.1226266958316283
 72
     1
 10
0.5156741326673076
 20
0.122626695831628
 11
0.5167002570317104
 21
0.1247722285935621
 72
     1
 10
0.5167002570317103
 20
0.1247722285935622
 11
0.5180062334954961
 21
0.1247722285935622
 72
     1
 10
0.5180062334954961
 20
0.1247722285935622
 11
0.5207114704561957
 21
0.1247722285935622
 72
     1
 10
0.5207114704561944
 20
0.1247722285935622
 11
0.5246293998475517
 21
0.1247722285935622
 72
     1
 10
0.5246293998475525
 20
0.1247722285935622
 11
0.5295734536033125
 21
0.1247722285935622
 72
     1
 10
0.5295734536033115
 20
0.1247722285935622
 11
0.5352637796240919
 21
0.1247722285935622
 72
     1
 10
0.5352637796240929
 20
0.1247722285935622
 11
0.5415138098436386
 21
0.1247722285935622
 72
     1
 10
0.5415138098436394
 20
0.1247722285935622
 11
0.5482302602288245
 21
0.1247722285935622
 72
     1
 10
0.5482302602288236
 20
0.1247722285935622
 11
0.5551332786802616
 21
0.1247722285935622
 72
     1
 10
0.5551332786802608
 20
0.1247722285935622
 11
0.5620362971317004
 21
0.1247722285935622
 72
     1
 10
0.5620362971317015
 20
0.1247722285935622
 11
0.5687527475168847
 21
0.1247722285935622
 72
     1
 10
0.5687527475168839
 20
0.1247722285935622
 11
0.5750027777364317
 21
0.1247722285935622
 72
     1
 10
0.5750027777364322
 20
0.1247722285935622
 11
0.5806931037572126
 21
0.1247722285935622
 72
     1
 10
0.5806931037572119
 20
0.1247722285935622
 11
0.585637157512972
 21
0.1247722285935622
 72
     1
 10
0.5856371575129727
 20
0.1247722285935622
 11
0.5895550869043299
 21
0.1247722285935622
 72
     1
 10
0.5895550869043289
 20
0.1247722285935622
 11
0.5922603238650286
 21
0.1247722285935622
 72
     1
 10
0.5922603238650291
 20
0.1247722285935622
 11
0.5935663003288148
 21
0.1247722285935622
 72
     1
 10
0.5935663003288148
 20
0.1247722285935622
 11
0.5945924246932176
 21
0.1226266958316281
 72
     1
 10
0.5945924246932175
 20
0.122626695831628
 11
0.5965513893888953
 21
0.1186154824071431
 72
     1
 10
0.5965513893888957
 20
0.1186154824071433
 11
0.5991633423164672
 21
0.1134848605851281
 72
     1
 10
0.5991633423164667
 20
0.1134848605851281
 11
0.6019618633102946
 21
0.1077012505312196
 72
     1
 10
0.6019618633102959
 20
0.1077012505312194
 11
0.604760384304122
 21
0.1021042085435664
 72
     1
 10
0.6047603843041221
 20
0.1021042085435665
 11
0.6070924851323109
 21
0.0973467228540611
 72
     1
 10
0.6070924851323101
 20
0.0973467228540612
 11
0.6087715977286067
 21
0.0939884976614691
 72
     1
 10
0.6087715977286062
 20
0.0939884976614688
 11
0.609424585960498
 21
0.0926825211976832
 72
     1
 10
0.6094245859604986
 20
0.0926825211976832
 11
0.6363836715343633
 21
0.0926825211976832
 72
     1
 10
0.6363836715343641
 20
0.0926825211976832
 11
0.5671669189537184
 21
0.2277578011663825
 72
     1
 10
0.5671669189537179
 20
0.2277578011663825
 11
0.5656743744236758
 21
0.2277578011663825
 97
        0
 75
     0
 76
     1
 98
        1
 10
-0.3743130907707726
 20
-0.2500502867693841
1001
ACAD
1010
0.0
1020
0.0
1030
0.0
  0
HATCH
  5
6A3D
330
6A34
100
AcDbEntity
  8
Kawneer Logo-English
100
AcDbHatch
 10
0.0
 20
0.0
 30
0.0
210
0.0
220
0.0
230
1.0
  2
SOLID
 70
     1
 71
     0
 91
        1
 92
        1
 93
       69
 72
     1
 10
0.8092389849197205
 20
0.2277578011663825
 11
0.778921674153266
 21
0.1309289747799811
 72
     1
 10
0.778921674153267
 20
0.1309289747799809
 11
0.7781754018882468
 21
0.1287834420180468
 72
     1
 10
0.7781754018882468
 20
0.1287834420180467
 11
0.7776156976894812
 21
0.1270110453886236
 72
     1
 10
0.7776156976894813
 20
0.1270110453886237
 11
0.7771492775238438
 21
0.1253319327923275
 72
     1
 10
0.7771492775238436
 20
0.1253319327923274
 11
0.7766828573582045
 21
0.1238393882622867
 72
     1
 10
0.7766828573582046
 20
0.1238393882622866
 11
0.7764030052588217
 21
0.1248655126266895
 72
     1
 10
0.776403005258822
 20
0.1248655126266896
 11
0.7761231531594392
 21
0.1259849210242202
 72
     1
 10
0.7761231531594391
 20
0.1259849210242201
 11
0.7759365850931844
 21
0.1268244773223681
 72
     1
 10
0.7759365850931843
 20
0.1268244773223682
 11
0.7758433010600562
 21
0.1271976134548783
 72
     1
 10
0.7758433010600552
 20
0.1271976134548783
 11
0.7755634489606744
 21
0.1280371697530267
 72
     1
 10
0.775563448960674
 20
0.1280371697530267
 11
0.7750970287950349
 21
0.1291565781505569
 72
     1
 10
0.7750970287950363
 20
0.1291565781505568
 11
0.773977620397507
 21
0.1323282352768938
 72
     1
 10
0.7739776203975062
 20
0.1323282352768939
 11
0.7721119397349549
 21
0.1372722890326544
 72
     1
 10
0.7721119397349554
 20
0.1372722890326546
 11
0.7697798389067666
 21
0.1436156032853281
 72
     1
 10
0.769779838906767
 20
0.1436156032853281
 11
0.7670746019460673
 21
0.1511716099686602
 72
     1
 10
0.7670746019460668
 20
0.15117160996866
 11
0.7639962288528581
 21
0.1595671729501399
 72
     1
 10
0.7639962288528582
 20
0.15956717295014
 11
0.7606380036602665
 21
0.1686157241635125
 72
     1
 10
0.7606380036602652
 20
0.1686157241635125
 11
0.7572797784676718
 21
0.1778508434431408
 72
     1
 10
0.7572797784676726
 20
0.1778508434431408
 11
0.753921553275081
 21
0.187179246755896
 72
     1
 10
0.7539215532750814
 20
0.1871792467558961
 11
0.7505633280824898
 21
0.1962277979692689
 72
     1
 10
0.7505633280824902
 20
0.1962277979692689
 11
0.7474849549892814
 21
0.2046233609507488
 72
     1
 10
0.7474849549892797
 20
0.2046233609507488
 11
0.74477971802858
 21
0.2121793676340809
 72
     1
 10
0.7447797180285814
 20
0.2121793676340809
 11
0.7424476172003926
 21
0.2185226818867544
 72
     1
 10
0.7424476172003929
 20
0.2185226818867545
 11
0.7405819365378416
 21
0.2234667356425151
 72
     1
 10
0.7405819365378408
 20
0.2234667356425151
 11
0.7394625281403098
 21
0.2266383927688516
 72
     1
 10
0.7394625281403103
 20
0.2266383927688516
 11
0.7390893920078009
 21
0.2277578011663822
 72
     1
 10
0.7390893920078004
 20
0.2277578011663825
 11
0.7191266089185034
 21
0.2277578011663825
 72
     1
 10
0.7191266089185029
 20
0.2277578011663825
 11
0.6843316645619254
 21
0.1336342117406798
 72
     1
 10
0.6843316645619267
 20
0.1336342117406795
 11
0.6832122561643957
 21
0.130649122680598
 72
     1
 10
0.6832122561643961
 20
0.1306491226805981
 11
0.6823726998662476
 21
0.1282237378192816
 72
     1
 10
0.6823726998662468
 20
0.1282237378192818
 11
0.6817197116343549
 21
0.1260782050573481
 72
     1
 10
0.6817197116343552
 20
0.1260782050573481
 11
0.6811600074355896
 21
0.1241192403616695
 72
     1
 10
0.6811600074355884
 20
0.1241192403616695
 11
0.6808801553362055
 21
0.1250520806929446
 72
     1
 10
0.6808801553362059
 20
0.1250520806929445
 11
0.6805070192036949
 21
0.1261714890904751
 72
     1
 10
0.680507019203696
 20
0.1261714890904752
 11
0.6802271671043131
 21
0.1272908974880058
 72
     1
 10
0.680227167104313
 20
0.1272908974880061
 11
0.6798540309718037
 21
0.1286901579849195
 72
     1
 10
0.6798540309718031
 20
0.1286901579849194
 11
0.6794808948392922
 21
0.12980956638245
 72
     1
 10
0.6794808948392932
 20
0.1298095663824503
 11
0.6784547704748904
 21
0.1328879394756595
 72
     1
 10
0.67845477047489
 20
0.1328879394756595
 11
0.6769622259448497
 21
0.1378319932314196
 72
     1
 10
0.6769622259448496
 20
0.1378319932314196
 11
0.6750032612491701
 21
0.1441753074840938
 72
     1
 10
0.6750032612491697
 20
0.1441753074840937
 11
0.6725778763878547
 21
0.1516380301342981
 72
     1
 10
0.6725778763878556
 20
0.1516380301342981
 11
0.6699659234602841
 21
0.160033593115778
 72
     1
 10
0.6699659234602829
 20
0.160033593115778
 11
0.6671674024664549
 21
0.168988860296023
 72
     1
 10
0.6671674024664554
 20
0.168988860296023
 11
0.6642755974395012
 21
0.1782239795756509
 72
     1
 10
0.6642755974395019
 20
0.178223979575651
 11
0.6613837924125477
 21
0.1874590988552789
 72
     1
 10
0.6613837924125466
 20
0.1874590988552789
 11
0.6585852714187205
 21
0.1964143660355239
 72
     1
 10
0.6585852714187204
 20
0.1964143660355237
 11
0.6559733184911489
 21
0.2047166449838762
 72
     1
 10
0.6559733184911494
 20
0.2047166449838765
 11
0.6536412176629606
 21
0.2122726516672082
 72
     1
 10
0.6536412176629614
 20
0.2122726516672082
 11
0.6515889689341538
 21
0.2186159659198823
 72
     1
 10
0.6515889689341537
 20
0.2186159659198821
 11
0.6500964244041133
 21
0.2234667356425149
 72
     1
 10
0.6500964244041132
 20
0.2234667356425151
 11
0.6490703000397104
 21
0.2266383927688516
 72
     1
 10
0.6490703000397105
 20
0.2266383927688516
 11
0.6487904479403276
 21
0.2277578011663822
 72
     1
 10
0.648790447940328
 20
0.2277578011663825
 11
0.6237903270621445
 21
0.2277578011663825
 72
     1
 10
0.6237903270621437
 20
0.2277578011663825
 11
0.6676338226320932
 21
0.0926825211976832
 72
     1
 10
0.6676338226320926
 20
0.0926825211976832
 11
0.6922608073777669
 21
0.0926825211976832
 72
     1
 10
0.6922608073777666
 20
0.0926825211976832
 11
0.726029627369941
 21
0.1855001341596003
 72
     1
 10
0.7260296273699423
 20
0.1855001341596003
 11
0.7269624677012189
 21
0.1882986551534267
 72
     1
 10
0.7269624677012177
 20
0.1882986551534266
 11
0.7278020239993661
 21
0.1906307559816158
 72
     1
 10
0.727802023999367
 20
0.1906307559816159
 11
0.7284550122312589
 21
0.1927762887435496
 72
     1
 10
0.7284550122312581
 20
0.1927762887435495
 11
0.7290147164300237
 21
0.1947352534392281
 72
     1
 10
0.7290147164300232
 20
0.1947352534392282
 11
0.7298542727281716
 21
0.192216584544784
 72
     1
 10
0.729854272728173
 20
0.1922165845447839
 11
0.7306938290263214
 21
0.1894180635509575
 72
     1
 10
0.7306938290263206
 20
0.1894180635509575
 11
0.7318132374238499
 21
0.1863396904577483
 72
     1
 10
0.7318132374238511
 20
0.1863396904577481
 11
0.7331192138876387
 21
0.1827016131657736
 72
     1
 10
0.7331192138876382
 20
0.1827016131657737
 11
0.7654887733828987
 21
0.0926825211976834
 72
     1
 10
0.7654887733828986
 20
0.0926825211976832
 11
0.7895560539298075
 21
0.0926825211976832
 72
     1
 10
0.7895560539298075
 20
0.0926825211976832
 11
0.8341458217647785
 21
0.2277578011663825
 72
     1
 10
0.8341458217647783
 20
0.2277578011663825
 11
0.830601028505932
 21
0.2277578011663825
 72
     1
 10
0.8306010285059324
 20
0.2277578011663825
 11
0.8092389849197216
 21
0.2277578011663825
 97
        0
 75
     0
 76
     1
 98
        1
 10
-0.3743130907707726
 20
-0.2500502867693841
1001
ACAD
1010
0.0
1020
0.0
1030
0.0
  0
ENDBLK
  5
6A41
330
6A34
100
AcDbEntity
  8
0
100
AcDbBlockEnd
  0
ENDSEC
  0
SECTION
  2
ENTITIES
  0
MTEXT
  5
2082
330
17
100
AcDbEntity
  8
0
 62
     2
100
AcDbMText
 10
29.39516041117352
 20
2.021918014938037
 30
0.0
 40
0.4375
 41
11.91800541288839
 71
     2
 72
     5
  1
DETAIL SCALE: 1" = 1"
 73
     1
 44
1.0
1001
ACAD
1000
MTEXTBEGIN
1070
    73
1070
     1
1070
    44
1040
1.0
1070
    74
1070
     0
1000
MTEXTEND
  0
LINE
  5
2085
330
17
100
AcDbEntity
  8
0
100
AcDbLine
 10
0.0
 20
0.0
 30
0.0
 11
0.0
 21
36.62719792586603
 31
0.0
  0
LINE
  5
2088
330
17
100
AcDbEntity
  8
0
100
AcDbLine
 10
0.0
 20
0.0
 30
0.0
 11
58.29491848745604
 21
0.0
 31
0.0
  0
MTEXT
  5
2099
330
17
100
AcDbEntity
  8
0
 62
     2
100
AcDbMText
 10
29.39516041117352
 20
6.750496155296717
 30
0.0
 40
0.5
 41
29.79248963989875
 71
     2
 72
     5
  1
TRIFAB™ VG 451 FRAMING SYSTEM\PMULTI PLANE - STICK ASSEMBLY WITH LIGHTWEIGHT RECEPTOR\PTRANSITION MULLIONS\P(1" INFILL)
 73
     1
 44
1.0
1001
ACAD
1000
MTEXTBEGIN
1070
    73
1070
     1
1070
    44
1040
1.0
1070
    74
1070
     0
1000
MTEXTEND
1000
ACAD_MTEXT_DEFINED_HEIGHT_BEGIN
1070
    46
1040
4.023647112323784
1000
ACAD_MTEXT_DEFINED_HEIGHT_END
  0
TEXT
  5
5AF5
330
17
100
AcDbEntity
  8
0
  6
Continuous
 62
     7
100
AcDbText
 10
15.24003332649327
 20
24.80222816354633
 30
0.0
 40
0.375
  1
FRONT TO BACK VERTICAL
 72
     1
 11
18.71837575486981
 21
24.80222816354633
 31
0.0
100
AcDbText
  0
TEXT
  5
5B0B
330
17
100
AcDbEntity
  8
0
  6
Continuous
 62
     7
100
AcDbText
 10
25.91450225922806
 20
24.80222816354633
 30
0.0
 40
0.375
  1
BACK TO FRONT VERTICAL
 72
     1
 11
29.3928446876046
 21
24.80222816354633
 31
0.0
100
AcDbText
  0
TEXT
  5
5D45
330
17
100
AcDbEntity
  8
0
  6
Continuous
 62
     7
100
AcDbText
 10
14.82170416656149
 20
11.00834464516313
 30
0.0
 40
0.375
  1
CENTER TO FRONT VERTICAL
 72
     1
 11
18.6636635799312
 21
11.00834464516313
 31
0.0
100
AcDbText
  0
TEXT
  5
5D46
330
17
100
AcDbEntity
  8
0
  6
Continuous
 62
     7
100
AcDbText
 10
36.15810497562303
 20
24.80222816354633
 30
0.0
 40
0.375
  1
FRONT TO CENTER VERTICAL
 72
     1
 11
40.00006438899274
 21
24.80222816354633
 31
0.0
100
AcDbText
  0
TEXT
  5
5D4C
330
17
100
AcDbEntity
  8
0
  6
Continuous
 62
     7
100
AcDbText
 10
25.68731627788411
 20
11.00834464516313
 30
0.0
 40
0.375
  1
CENTER TO BACK VERTICAL
 72
     1
 11
29.34049670080361
 21
11.00834464516313
 31
0.0
100
AcDbText
  0
TEXT
  5
614B
330
17
100
AcDbEntity
  8
0
  6
Continuous
 62
     7
100
AcDbText
 10
36.12491228649936
 20
11.00834464516313
 30
0.0
 40
0.375
  1
BACK TO CENTER VERTICAL
 72
     1
 11
39.77809270941887
 21
11.00834464516313
 31
0.0
100
AcDbText
  0
LINE
  5
6486
330
17
100
AcDbEntity
  8
R-SWTS-DET1
100
AcDbLine
 10
21.64033040790409
 20
32.73000327899922
 30
0.0
 11
15.64031040790407
 21
32.73000327899922
 31
0.0
  0
LINE
  5
6487
330
17
100
AcDbEntity
  8
R-SWTS-DET1
100
AcDbLine
 10
21.64033040790408
 20
27.98000327899921
 30
0.0
 11
15.64031040790407
 21
27.98000327899921
 31
0.0
  0
LINE
  5
6488
330
17
100
AcDbEntity
  8
R-SWTS-DET1
100
AcDbLine
 10
19.64032040790408
 20
28.10500327899922
 30
0.0
 11
21.64033040790408
 21
28.10500327899922
 31
0.0
  0
LWPOLYLINE
  5
6489
330
17
100
AcDbEntity
  8
R-SWTS-DET1
100
AcDbPolyline
 90
        6
 70
     0
 43
0.0
 10
15.64031040790407
 20
33.00400327899922
 10
15.64031040790407
 20
30.47901327899922
 10
15.44033040790407
 20
30.42899327899922
 10
15.84031040790408
 20
30.32901327899921
 10
15.64031040790407
 20
30.27901327899922
 10
15.64031040790407
 20
27.75400327899922
  0
LINE
  5
648A
330
17
100
AcDbEntity
  8
R-SWTS-DET1
100
AcDbLine
 10
17.64032040790407
 20
32.60500327899921
 30
0.0
 11
15.64031040790407
 21
32.60500327899921
 31
0.0
  0
LWPOLYLINE
  5
648B
330
17
100
AcDbEntity
  8
R-SWTS-DET1
100
AcDbPolyline
 90
        6
 70
     0
 43
0.0
 10
21.64033040790408
 20
27.75400327899922
 10
21.64033040790408
 20
30.27899327899921
 10
21.84031040790408
 20
30.32901327899921
 10
21.44033040790408
 20
30.42899327899922
 10
21.64033040790408
 20
30.47899327899922
 10
21.64033040790409
 20
33.00400327899922
  0
LINE
  5
648C
330
17
100
AcDbEntity
  8
R-SWTS-DET1
100
AcDbLine
 10
19.64032040790408
 20
32.60500327899922
 30
0.0
 11
21.64033040790409
 21
32.60500327899922
 31
0.0
  0
LINE
  5
648D
330
17
100
AcDbEntity
  8
R-SWTS-DET1
100
AcDbLine
 10
17.64032040790408
 20
28.10500327899922
 30
0.0
 11
15.64031040790407
 21
28.10500327899922
 31
0.0
  0
TEXT
  5
648E
330
17
100
AcDbEntity
  8
PART_NUMBERS
100
AcDbText
 10
15.81314246479468
 20
33.2544496910874
 30
0.0
 40
0.25
  1
451VG069 TRANSITION MULLION
100
AcDbText
  0
LWPOLYLINE
  5
648F
330
17
100
AcDbEntity
  8
R-SWTS-DET1
100
AcDbPolyline
 90
      134
 70
     1
 43
0.0
 10
17.74282040790408
 20
28.38600327899922
 10
17.74282040790408
 20
28.41500327899922
 10
17.78082040790408
 20
28.41500327899922
 10
17.88297864172044
 20
28.3925662310139
 42
-0.3541185725306862
 10
17.89882040790408
 20
28.37300327899922
 10
17.89882040790409
 20
28.33105327899922
 10
17.83219807743375
 20
28.26437560946956
 42
-0.1989123673796512
 10
17.81452040790409
 20
28.25705327899922
 10
17.74282040790408
 20
28.25705327899922
 10
17.74282040790408
 20
28.28605327899922
 10
17.64032040790408
 20
28.25002297596892
 10
17.64032040790408
 20
28.10500327899922
 10
19.64032040790408
 20
28.10500327899922
 10
19.64032040790408
 20
28.19500327899922
 10
19.31132040790408
 20
28.19500327899922
 10
19.31132040790408
 20
28.25702104595219
 42
0.6681786379192535
 10
19.29424934009222
 20
28.26409211376406
 10
19.22516050532738
 20
28.19500327899922
 10
19.09419080027074
 20
28.19500327899922
 42
-0.4142135623730847
 10
19.06919080027073
 20
28.22000327899922
 10
19.06919080027073
 20
28.48231982067733
 42
-0.4142135623730951
 10
19.16919080027073
 20
28.58231982067733
 10
19.41405413966795
 20
28.58231982067733
 10
19.42989829075225
 20
28.55487694599652
 42
0.4142135623730951
 10
19.45038867180902
 20
28.54938656493976
 10
19.49991931420903
 20
28.57798309466254
 42
0.2679491924311083
 10
19.50741931420903
 20
28.5909734757193
 10
19.50741931420903
 20
28.61755558386987
 42
0.4142135623730951
 10
19.49241931420903
 20
28.63255558386987
 10
19.16919080027074
 20
28.63255558386987
 42
0.4142135623730968
 10
19.01919080027073
 20
28.48255558386987
 10
19.01919080027073
 20
28.22000327899922
 42
-0.4142135623730847
 10
18.99419080027074
 20
28.19500327899922
 10
18.79032040790409
 20
28.19500327899922
 42
-0.4142135623730971
 10
18.73032040790409
 20
28.25500327899922
 10
18.73032040790409
 20
28.8700082789992
 42
-0.4142135623730821
 10
18.75032040790409
 20
28.8900082789992
 10
18.94532040790409
 20
28.8900082789992
 42
0.4142135623730951
 10
19.01532040790409
 20
28.9600082789992
 10
19.01532040790409
 20
29.1010082789992
 10
18.94982040790409
 20
29.1010082789992
 42
0.9999999999999998
 10
18.94982040790409
 20
29.0700082789992
 10
18.95032040790409
 20
29.0700082789992
 42
-0.4142135623730951
 10
18.96532040790409
 20
29.0550082789992
 10
18.96532040790409
 20
28.9750082789992
 42
-0.4142135623730951
 10
18.95032040790409
 20
28.9600082789992
 10
18.73532040790409
 20
28.9600082789992
 42
-0.4142135623730951
 10
18.72032040790409
 20
28.9750082789992
 10
18.72032040790409
 20
29.0550082789992
 42
-0.4142135623730951
 10
18.73532040790409
 20
29.0700082789992
 10
18.7358204079041
 20
29.0700082789992
 42
0.9999999999999998
 10
18.7358204079041
 20
29.10100827899919
 10
18.72032040790409
 20
29.10100827899919
 10
18.72032040790409
 20
29.35100827899919
 10
18.7358204079041
 20
29.35100827899919
 42
0.9999999999999998
 10
18.7358204079041
 20
29.38200827899919
 10
18.73532040790409
 20
29.38200827899919
 42
-0.4142135623730951
 10
18.72032040790409
 20
29.39700827899919
 10
18.72032040790409
 20
29.4770082789992
 42
-0.4142135623730951
 10
18.73532040790409
 20
29.4920082789992
 10
18.95032040790409
 20
29.4920082789992
 42
-0.4142135623730951
 10
18.96532040790409
 20
29.4770082789992
 10
18.96532040790409
 20
29.39700827899919
 42
-0.4142135623730951
 10
18.95032040790409
 20
29.38200827899919
 10
18.94982040790409
 20
29.38200827899919
 42
0.9999999999999998
 10
18.94982040790409
 20
29.3510082789992
 10
19.01532040790409
 20
29.35100827899919
 10
19.0153204079041
 20
29.49200827899919
 42
0.41421356237311
 10
18.9453204079041
 20
29.5620082789992
 10
18.75032040790409
 20
29.5620082789992
 42
-0.4142135623730951
 10
18.73032040790409
 20
29.5820082789992
 10
18.73032040790409
 20
29.83100827899919
 42
0.4142135623730855
 10
18.5403204079041
 20
30.0210082789992
 10
17.97040806339621
 20
30.02100827899922
 42
-0.1990202627215611
 10
17.9527230565638
 20
30.028337949819
 10
17.89294200126079
 20
30.08816866155616
 42
0.1990202627215691
 10
17.81866497256465
 20
30.11895327899922
 10
17.81032040790408
 20
30.11895327899922
 42
-0.4142135623730951
 10
17.73032040790408
 20
30.19895327899922
 10
17.73032040790408
 20
32.35125327899922
 42
-0.4142135623731026
 10
17.80032040790408
 20
32.42125327899922
 10
17.82946611457043
 20
32.42125327899922
 42
-0.4142135623730876
 10
17.89946611457042
 20
32.35125327899922
 10
17.89946611457042
 20
32.34058282445377
 42
-0.081971439864274
 10
17.8465511928418
 20
32.1813281109414
 42
0.2574642289896802
 10
17.84690640374565
 20
32.16322220962926
 10
17.85922932784047
 20
32.14187827899921
 42
0.5825402726417694
 10
17.89184895606202
 20
32.14213165737759
 42
0.1277034272886839
 10
17.96432040790408
 20
32.42125327899922
 10
17.96432040790408
 20
32.51500327899922
 10
17.64032040790408
 20
32.51500327899922
 10
17.64032040790408
 20
30.03598358202952
 10
17.74282040790408
 20
29.99995327899922
 10
17.74282040790408
 20
30.02895327899922
 10
17.81452040790409
 20
30.02895327899922
 42
-0.1989123673796511
 10
17.83219807743375
 20
30.02163094852888
 10
17.89882040790409
 20
29.95495327899922
 10
17.89882040790409
 20
29.91300327899922
 42
-0.3541185725307012
 10
17.88297864172044
 20
29.89344032698454
 10
17.78082040790409
 20
29.87100327899922
 10
17.74282040790408
 20
29.87100327899922
 10
17.74282040790408
 20
29.90000327899922
 10
17.73082040790409
 20
29.90000327899922
 42
0.4142135623730951
 10
17.71082040790409
 20
29.88000327899922
 10
17.71082040790409
 20
29.85100327899922
 42
0.4142135623730951
 10
17.73082040790409
 20
29.83100327899922
 10
17.93281540790409
 20
29.83100327899922
 42
0.4142135623730951
 10
17.97082040790409
 20
29.86900827899922
 10
17.94882040790409
 20
29.86900827899922
 10
17.94882040790409
 20
29.90600827899922
 42
-0.4142135623730951
 10
17.97382040790409
 20
29.93100827899922
 10
18.54032040790409
 20
29.9310082789992
 42
-0.4142135623730886
 10
18.64032040790409
 20
29.83100827899919
 10
18.64032040790408
 20
29.36100827899919
 10
18.65032040790408
 20
29.35100827899919
 10
18.64032040790409
 20
29.34100827899919
 10
18.64032040790408
 20
29.11100827899919
 10
18.65032040790408
 20
29.10100827899919
 10
18.64032040790408
 20
29.09100827899919
 10
18.64032040790408
 20
28.25500327899922
 42
-0.414213562373093
 10
18.58032040790408
 20
28.19500327899922
 10
17.9242453819192
 20
28.19500327899922
 42
-0.6681640521692851
 10
17.9101026758808
 20
28.22914484418528
 10
17.96349879045209
 20
28.28254526641855
 42
0.1989018846181274
 10
17.97082040790409
 20
28.30022222290111
 10
17.97082040790409
 20
28.35499827899922
 10
17.94882040790408
 20
28.35499827899922
 10
17.94882040790408
 20
28.41699827899923
 10
17.97082040790409
 20
28.41699827899923
 42
0.4142135623730951
 10
17.93281540790409
 20
28.45500327899922
 10
17.73082040790409
 20
28.45500327899922
 42
0.4142135623730951
 10
17.71082040790409
 20
28.43500327899922
 10
17.71082040790409
 20
28.40600327899922
 42
0.4142135623730951
 10
17.73082040790409
 20
28.38600327899922
  0
LWPOLYLINE
  5
6490
330
17
100
AcDbEntity
  8
R-SWTS-DET1
100
AcDbPolyline
 90
      134
 70
     1
 43
0.0
 10
19.53782040790407
 20
32.32400327899922
 10
19.53782040790407
 20
32.29500327899922
 10
19.49982040790407
 20
32.29500327899922
 10
19.39766217408772
 20
32.31744032698455
 42
-0.3541185725306862
 10
19.38182040790407
 20
32.33700327899922
 10
19.38182040790407
 20
32.37895327899922
 10
19.44844273837441
 20
32.44563094852889
 42
-0.1989123673796512
 10
19.46612040790407
 20
32.45295327899923
 10
19.53782040790407
 20
32.45295327899923
 10
19.53782040790407
 20
32.42395327899922
 10
19.64032040790408
 20
32.45998358202953
 10
19.64032040790408
 20
32.60500327899922
 10
17.64032040790407
 20
32.60500327899922
 10
17.64032040790407
 20
32.51500327899922
 10
17.96932040790408
 20
32.51500327899922
 10
17.96932040790408
 20
32.45298551204625
 42
0.6681786379192535
 10
17.98639147571594
 20
32.44591444423439
 10
18.05548031048078
 20
32.51500327899922
 10
18.18645001553743
 20
32.51500327899922
 42
-0.4142135623730847
 10
18.21145001553743
 20
32.49000327899922
 10
18.21145001553743
 20
32.22768673732111
 42
-0.4142135623730951
 10
18.11145001553743
 20
32.12768673732111
 10
17.86658667614021
 20
32.12768673732111
 10
17.8507425250559
 20
32.15512961200192
 42
0.4142135623730951
 10
17.83025214399914
 20
32.16061999305868
 10
17.78072150159913
 20
32.1320234633359
 42
0.2679491924311083
 10
17.77322150159913
 20
32.11903308227913
 10
17.77322150159913
 20
32.09245097412857
 42
0.4142135623730951
 10
17.78822150159913
 20
32.07745097412857
 10
18.11145001553742
 20
32.07745097412857
 42
0.4142135623730968
 10
18.26145001553743
 20
32.22745097412857
 10
18.26145001553743
 20
32.49000327899922
 42
-0.4142135623730847
 10
18.28645001553742
 20
32.51500327899922
 10
18.49032040790407
 20
32.51500327899922
 42
-0.4142135623730971
 10
18.55032040790407
 20
32.45500327899922
 10
18.55032040790407
 20
31.83999827899925
 42
-0.4142135623730821
 10
18.53032040790407
 20
31.81999827899924
 10
18.33532040790407
 20
31.81999827899924
 42
0.4142135623730951
 10
18.26532040790407
 20
31.74999827899924
 10
18.26532040790407
 20
31.60899827899925
 10
18.33082040790406
 20
31.60899827899925
 42
0.9999999999999998
 10
18.33082040790406
 20
31.63999827899925
 10
18.33032040790407
 20
31.63999827899925
 42
-0.4142135623730951
 10
18.31532040790407
 20
31.65499827899925
 10
18.31532040790407
 20
31.73499827899924
 42
-0.4142135623730951
 10
18.33032040790407
 20
31.74999827899924
 10
18.54532040790407
 20
31.74999827899924
 42
-0.4142135623730951
 10
18.56032040790407
 20
31.73499827899924
 10
18.56032040790407
 20
31.65499827899925
 42
-0.4142135623730951
 10
18.54532040790407
 20
31.63999827899925
 10
18.54482040790406
 20
31.63999827899925
 42
0.9999999999999998
 10
18.54482040790406
 20
31.60899827899925
 10
18.56032040790407
 20
31.60899827899925
 10
18.56032040790407
 20
31.35899827899925
 10
18.54482040790406
 20
31.35899827899925
 42
0.9999999999999998
 10
18.54482040790406
 20
31.32799827899925
 10
18.54532040790407
 20
31.32799827899925
 42
-0.4142135623730951
 10
18.56032040790407
 20
31.31299827899925
 10
18.56032040790407
 20
31.23299827899925
 42
-0.4142135623730951
 10
18.54532040790407
 20
31.21799827899925
 10
18.33032040790407
 20
31.21799827899925
 42
-0.4142135623730951
 10
18.31532040790407
 20
31.23299827899925
 10
18.31532040790407
 20
31.31299827899925
 42
-0.4142135623730951
 10
18.33032040790407
 20
31.32799827899925
 10
18.33082040790406
 20
31.32799827899925
 42
0.9999999999999998
 10
18.33082040790406
 20
31.35899827899924
 10
18.26532040790407
 20
31.35899827899925
 10
18.26532040790406
 20
31.21799827899925
 42
0.41421356237311
 10
18.33532040790406
 20
31.14799827899925
 10
18.53032040790407
 20
31.14799827899925
 42
-0.4142135623730951
 10
18.55032040790407
 20
31.12799827899924
 10
18.55032040790407
 20
30.87899827899925
 42
0.4142135623730855
 10
18.74032040790406
 20
30.68899827899925
 10
19.31023275241195
 20
30.68899827899922
 42
-0.1990202627215611
 10
19.32791775924436
 20
30.68166860817945
 10
19.38769881454737
 20
30.62183789644228
 42
0.1990202627215691
 10
19.46197584324351
 20
30.59105327899922
 10
19.47032040790408
 20
30.59105327899922
 42
-0.4142135623730951
 10
19.55032040790408
 20
30.51105327899922
 10
19.55032040790408
 20
28.35875327899922
 42
-0.4142135623731026
 10
19.48032040790408
 20
28.28875327899922
 10
19.45117470123773
 20
28.28875327899922
 42
-0.4142135623730876
 10
19.38117470123773
 20
28.35875327899922
 10
19.38117470123773
 20
28.36942373354467
 42
-0.081971439864274
 10
19.43408962296636
 20
28.52867844705704
 42
0.2574642289896802
 10
19.43373441206251
 20
28.54678434836918
 10
19.42141148796769
 20
28.56812827899923
 42
0.5825402726417694
 10
19.38879185974614
 20
28.56787490062085
 42
0.1277034272886839
 10
19.31632040790407
 20
28.28875327899922
 10
19.31632040790408
 20
28.19500327899922
 10
19.64032040790408
 20
28.19500327899922
 10
19.64032040790408
 20
30.67402297596892
 10
19.53782040790407
 20
30.71005327899922
 10
19.53782040790407
 20
30.68105327899922
 10
19.46612040790407
 20
30.68105327899922
 42
-0.1989123673796511
 10
19.44844273837441
 20
30.68837560946956
 10
19.38182040790407
 20
30.75505327899922
 10
19.38182040790407
 20
30.79700327899922
 42
-0.3541185725307012
 10
19.39766217408772
 20
30.8165662310139
 10
19.49982040790407
 20
30.83900327899922
 10
19.53782040790407
 20
30.83900327899922
 10
19.53782040790407
 20
30.81000327899922
 10
19.54982040790407
 20
30.81000327899922
 42
0.4142135623730951
 10
19.56982040790407
 20
30.83000327899922
 10
19.56982040790407
 20
30.85900327899922
 42
0.4142135623730951
 10
19.54982040790407
 20
30.87900327899922
 10
19.34782540790407
 20
30.87900327899922
 42
0.4142135623730951
 10
19.30982040790407
 20
30.84099827899922
 10
19.33182040790407
 20
30.84099827899922
 10
19.33182040790407
 20
30.80399827899923
 42
-0.4142135623730951
 10
19.30682040790407
 20
30.77899827899922
 10
18.74032040790407
 20
30.77899827899925
 42
-0.4142135623730886
 10
18.64032040790407
 20
30.87899827899925
 10
18.64032040790408
 20
31.34899827899925
 10
18.63032040790407
 20
31.35899827899925
 10
18.64032040790407
 20
31.36899827899925
 10
18.64032040790408
 20
31.59899827899925
 10
18.63032040790407
 20
31.60899827899925
 10
18.64032040790408
 20
31.61899827899925
 10
18.64032040790408
 20
32.45500327899922
 42
-0.414213562373093
 10
18.70032040790408
 20
32.51500327899922
 10
19.35639543388896
 20
32.51500327899922
 42
-0.6681640521692851
 10
19.37053813992736
 20
32.48086171381316
 10
19.31714202535607
 20
32.42746129157989
 42
0.1989018846181274
 10
19.30982040790407
 20
32.40978433509733
 10
19.30982040790407
 20
32.35500827899922
 10
19.33182040790407
 20
32.35500827899922
 10
19.33182040790407
 20
32.29300827899922
 10
19.30982040790407
 20
32.29300827899922
 42
0.4142135623730951
 10
19.34782540790407
 20
32.25500327899923
 10
19.54982040790407
 20
32.25500327899923
 42
0.4142135623730951
 10
19.56982040790407
 20
32.27500327899922
 10
19.56982040790407
 20
32.30400327899922
 42
0.4142135623730951
 10
19.54982040790407
 20
32.32400327899922
  0
LINE
  5
6491
330
17
100
AcDbEntity
  8
R-SWTS-DET3
100
AcDbLine
 10
18.01532040790408
 20
28.64344489153408
 30
0.0
 11
15.64032040790408
 21
28.64344489153408
 31
0.0
  0
LINE
  5
6492
330
17
100
AcDbEntity
  8
R-SWTS-DET3
100
AcDbLine
 10
18.01532040790408
 20
28.89344489153407
 30
0.0
 11
15.64032040790408
 21
28.89344489153407
 31
0.0
  0
LINE
  5
6493
330
17
100
AcDbEntity
  8
R-SWTS-DET3
100
AcDbLine
 10
18.01532040790408
 20
29.39344489153408
 30
0.0
 11
15.64032040790408
 21
29.39344489153408
 31
0.0
  0
LINE
  5
6494
330
17
100
AcDbEntity
  8
R-SWTS-DET3
100
AcDbLine
 10
18.01532040790408
 20
29.64344489153408
 30
0.0
 11
15.64032040790408
 21
29.64344489153408
 31
0.0
  0
LINE
  5
6495
330
17
100
AcDbEntity
  8
R-SWTS-DET2
100
AcDbLine
 10
17.64032040790407
 20
28.12614117707923
 30
0.0
 11
15.64032040790407
 21
28.12614117707923
 31
0.0
  0
LINE
  5
6496
330
17
100
AcDbEntity
  8
R-SWTS-DET2
100
AcDbLine
 10
17.64032040790407
 20
30.16074860598892
 30
0.0
 11
15.64032040790407
 21
30.16074860598892
 31
0.0
  0
LINE
  5
6497
330
17
100
AcDbEntity
  8
R-SWTS-DET3
100
AcDbLine
 10
18.01532040790408
 20
28.64344489153408
 30
0.0
 11
18.01532040790408
 21
29.64344489153408
 31
0.0
  0
LINE
  5
6498
330
17
100
AcDbEntity
  8
R-SWTS-DET3
100
AcDbLine
 10
17.76532040790408
 20
28.89344489153407
 30
0.0
 11
17.76532040790408
 21
29.39344489153408
 31
0.0
  0
LINE
  5
6499
330
17
100
AcDbEntity
  8
R-SWTS-DET3
100
AcDbLine
 10
19.26532040790408
 20
32.06656166646437
 30
0.0
 11
21.64032040790409
 21
32.06656166646437
 31
0.0
  0
LINE
  5
649A
330
17
100
AcDbEntity
  8
R-SWTS-DET3
100
AcDbLine
 10
19.26532040790408
 20
31.81656166646437
 30
0.0
 11
21.64032040790409
 21
31.81656166646437
 31
0.0
  0
LINE
  5
649B
330
17
100
AcDbEntity
  8
R-SWTS-DET3
100
AcDbLine
 10
19.26532040790408
 20
31.31656166646437
 30
0.0
 11
21.64032040790409
 21
31.31656166646437
 31
0.0
  0
LINE
  5
649C
330
17
100
AcDbEntity
  8
R-SWTS-DET3
100
AcDbLine
 10
19.26532040790408
 20
31.06656166646437
 30
0.0
 11
21.64032040790409
 21
31.06656166646437
 31
0.0
  0
LINE
  5
649D
330
17
100
AcDbEntity
  8
R-SWTS-DET2
100
AcDbLine
 10
19.64032040790409
 20
32.58386538091921
 30
0.0
 11
21.64032040790409
 21
32.58386538091921
 31
0.0
  0
LINE
  5
649E
330
17
100
AcDbEntity
  8
R-SWTS-DET2
100
AcDbLine
 10
19.64032040790409
 20
30.54925795200952
 30
0.0
 11
21.64032040790409
 21
30.54925795200952
 31
0.0
  0
LINE
  5
649F
330
17
100
AcDbEntity
  8
R-SWTS-DET3
100
AcDbLine
 10
19.26532040790408
 20
32.06656166646437
 30
0.0
 11
19.26532040790408
 21
31.06656166646437
 31
0.0
  0
LINE
  5
64A0
330
17
100
AcDbEntity
  8
R-SWTS-DET3
100
AcDbLine
 10
19.51532040790408
 20
31.81656166646437
 30
0.0
 11
19.51532040790408
 21
31.31656166646437
 31
0.0
  0
LWPOLYLINE
  5
64A1
330
17
100
AcDbEntity
  8
R-SWTS-DET2
100
AcDbPolyline
 90
       31
 70
     1
 43
0.0
 10
19.52631837973963
 20
32.44005026231816
 10
19.5311926803376
 20
32.41323373577923
 10
19.63842727801935
 20
32.44736385990036
 10
19.64330157689804
 20
32.50831051056043
 10
19.64032040790409
 20
32.58386538091921
 10
19.67132995052532
 20
32.57377483936089
 42
-0.1257100272134179
 10
19.72307227811898
 20
32.34178343733884
 42
0.2260837189018228
 10
19.77279013676308
 20
32.18819787690723
 10
19.88373075492343
 20
32.09264256724754
 42
-0.6449762263124317
 10
19.87198941244977
 20
32.06670827522935
 10
19.74275247682038
 20
32.06828801225741
 42
-0.1518691569180708
 10
19.69831732247113
 20
32.08464078885374
 10
19.63839154320265
 20
32.12314397714898
 42
0.0293454671788447
 10
19.58650890001003
 20
32.14053886635189
 10
19.46471489017298
 20
32.15776915593541
 42
0.6538117075652882
 10
19.45772815320762
 20
32.13752834503256
 10
19.62297707069754
 20
32.09343659781023
 42
-0.8886355728344963
 10
19.62091563979815
 20
32.06828801225741
 10
19.4866700194055
 20
32.06828801225741
 42
-0.0642046489364144
 10
19.29805376269821
 20
32.11072047416684
 42
-0.6896355001773956
 10
19.29805376269821
 20
32.21332920455494
 42
-0.0703560868358924
 10
19.4866700194055
 20
32.25456166646437
 10
19.58237282973913
 20
32.25456166646437
 10
19.58237282973913
 20
32.32790842444096
 10
19.52875553003862
 20
32.34984921925843
 10
19.52388123115993
 20
32.31084336134495
 10
19.48732398183302
 20
32.34497348753696
 10
19.46538963258072
 20
32.31328122720568
 10
19.41177233459949
 20
32.37422787993663
 10
19.47757538235636
 20
32.43029879887524
 10
19.48732398183302
 20
32.40592013819703
  0
LWPOLYLINE
  5
64A2
330
17
100
AcDbEntity
  8
R-SWTS-DET2
100
AcDbPolyline
 90
       31
 70
     1
 43
0.0
 10
19.52631837973963
 20
30.69307307061058
 10
19.5311926803376
 20
30.71988959714951
 10
19.63842727801935
 20
30.68575947302838
 10
19.64330157689804
 20
30.62481282236831
 10
19.64032040790409
 20
30.54925795200952
 10
19.67132995052532
 20
30.55934849356785
 42
0.1257100272134179
 10
19.72307227811898
 20
30.7913398955899
 42
-0.2260837189018228
 10
19.77279013676308
 20
30.94492545602151
 10
19.88373075492343
 20
31.04048076568119
 42
0.6449762263124317
 10
19.87198941244977
 20
31.06641505769938
 10
19.74275247682038
 20
31.06483532067133
 42
0.1518691569180708
 10
19.69831732247113
 20
31.048482544075
 10
19.63839154320265
 20
31.00997935577975
 42
-0.0293454671788447
 10
19.58650890001003
 20
30.99258446657685
 10
19.46471489017298
 20
30.97535417699332
 42
-0.6538117075652882
 10
19.45772815320762
 20
30.99559498789618
 10
19.62297707069754
 20
31.03968673511851
 42
0.8886355728344963
 10
19.62091563979815
 20
31.06483532067133
 10
19.4866700194055
 20
31.06483532067133
 42
0.0642046489364144
 10
19.29805376269821
 20
31.0224028587619
 42
0.6896355001773956
 10
19.29805376269821
 20
30.9197941283738
 42
0.0703560868358924
 10
19.4866700194055
 20
30.87856166646437
 10
19.58237282973913
 20
30.87856166646437
 10
19.58237282973913
 20
30.80521490848778
 10
19.52875553003862
 20
30.78327411367031
 10
19.52388123115993
 20
30.82227997158379
 10
19.48732398183302
 20
30.78814984539178
 10
19.46538963258072
 20
30.81984210572306
 10
19.41177233459949
 20
30.75889545299211
 10
19.47757538235636
 20
30.7028245340535
 10
19.48732398183302
 20
30.7272031947317
  0
LWPOLYLINE
  5
64A3
330
17
100
AcDbEntity
  8
R-SWTS-DET2
100
AcDbPolyline
 90
       31
 70
     1
 43
0.0
 10
17.75432243606853
 20
28.26995629568028
 10
17.74944813547056
 20
28.29677282221922
 10
17.64221353778881
 20
28.26264269809808
 10
17.63733923891012
 20
28.20169604743801
 10
17.64032040790407
 20
28.12614117707923
 10
17.60931086528284
 20
28.13623171863755
 42
-0.1257100272134179
 10
17.55756853768918
 20
28.3682231206596
 42
0.2260837189018228
 10
17.50785067904508
 20
28.52180868109121
 10
17.39691006088473
 20
28.6173639907509
 42
-0.6449762263124317
 10
17.40865140335839
 20
28.64329828276909
 10
17.53788833898777
 20
28.64171854574103
 42
-0.1518691569180708
 10
17.58232349333703
 20
28.6253657691447
 10
17.64224927260551
 20
28.58686258084945
 42
0.0293454671788447
 10
17.69413191579813
 20
28.56946769164656
 10
17.81592592563518
 20
28.55223740206303
 42
0.6538117075652882
 10
17.82291266260054
 20
28.57247821296589
 10
17.65766374511062
 20
28.61656996018821
 42
-0.8886355728344963
 10
17.65972517601001
 20
28.64171854574103
 10
17.79397079640266
 20
28.64171854574103
 42
-0.0642046489364144
 10
17.98258705310995
 20
28.59928608383161
 42
-0.6896355001773956
 10
17.98258705310995
 20
28.4966773534435
 42
-0.0703560868358924
 10
17.79397079640266
 20
28.45544489153408
 10
17.69826798606903
 20
28.45544489153408
 10
17.69826798606903
 20
28.38209813355748
 10
17.75188528576954
 20
28.36015733874002
 10
17.75675958464823
 20
28.39916319665349
 10
17.79331683397514
 20
28.36503307046148
 10
17.81525118322743
 20
28.39672533079276
 10
17.86886848120867
 20
28.33577867806181
 10
17.8030654334518
 20
28.27970775912321
 10
17.79331683397514
 20
28.30408641980141
  0
LWPOLYLINE
  5
64A4
330
17
100
AcDbEntity
  8
R-SWTS-DET2
100
AcDbPolyline
 90
       31
 70
     1
 43
0.0
 10
17.75432243606853
 20
30.01693348738787
 10
17.74944813547056
 20
29.99011696084894
 10
17.64221353778881
 20
30.02424708497007
 10
17.63733923891012
 20
30.08519373563014
 10
17.64032040790407
 20
30.16074860598892
 10
17.60931086528284
 20
30.1506580644306
 42
0.1257100272134179
 10
17.55756853768918
 20
29.91866666240854
 42
-0.2260837189018228
 10
17.50785067904508
 20
29.76508110197693
 10
17.39691006088473
 20
29.66952579231725
 42
0.6449762263124317
 10
17.40865140335839
 20
29.64359150029906
 10
17.53788833898777
 20
29.64517123732711
 42
0.1518691569180708
 10
17.58232349333703
 20
29.66152401392344
 10
17.64224927260551
 20
29.7000272022187
 42
-0.0293454671788447
 10
17.69413191579813
 20
29.7174220914216
 10
17.81592592563518
 20
29.73465238100512
 42
-0.6538117075652882
 10
17.82291266260054
 20
29.71441157010226
 10
17.65766374511062
 20
29.67031982287993
 42
0.8886355728344963
 10
17.65972517601001
 20
29.64517123732711
 10
17.79397079640266
 20
29.64517123732711
 42
0.0642046489364144
 10
17.98258705310995
 20
29.68760369923654
 42
0.6896355001773956
 10
17.98258705310995
 20
29.79021242962465
 42
0.0703560868358924
 10
17.79397079640266
 20
29.83144489153407
 10
17.69826798606903
 20
29.83144489153407
 10
17.69826798606903
 20
29.90479164951066
 10
17.75188528576954
 20
29.92673244432813
 10
17.75675958464823
 20
29.88772658641466
 10
17.79331683397514
 20
29.92185671260667
 10
17.81525118322743
 20
29.89016445227539
 10
17.86886848120867
 20
29.95111110500634
 10
17.8030654334518
 20
30.00718202394494
 10
17.79331683397514
 20
29.98280336326674
  0
LINE
  5
64A5
330
17
100
AcDbEntity
  8
R-ANNO-DIMS
  6
Continuous
100
AcDbLine
 10
17.64032040790407
 20
27.75400327899922
 30
0.0
 11
17.64032040790407
 21
26.19900327899922
 31
0.0
  0
LINE
  5
64A6
330
17
100
AcDbEntity
  8
R-ANNO-DIMS
  6
Continuous
100
AcDbLine
 10
19.64032040790408
 20
27.75400327899922
 30
0.0
 11
19.64032040790408
 21
26.19900327899922
 31
0.0
  0
LINE
  5
64A7
330
17
100
AcDbEntity
  8
R-ANNO-DIMS
  6
Continuous
100
AcDbLine
 10
17.89032040790408
 20
26.37900327899922
 30
0.0
 11
19.39032040790408
 21
26.37900327899922
 31
0.0
  0
SOLID
  5
64A8
330
17
100
AcDbEntity
  8
R-ANNO-DIMS
  6
Continuous
100
AcDbTrace
 10
17.89032040790408
 20
26.42066994566588
 30
0.0
 11
17.89032040790408
 21
26.33733661233255
 31
0.0
 12
17.64032040790407
 22
26.37900327899922
 32
0.0
 13
17.64032040790407
 23
26.37900327899922
 33
0.0
  0
SOLID
  5
64A9
330
17
100
AcDbEntity
  8
R-ANNO-DIMS
  6
Continuous
100
AcDbTrace
 10
19.39032040790408
 20
26.42066994566588
 30
0.0
 11
19.39032040790408
 21
26.33733661233255
 31
0.0
 12
19.64032040790408
 22
26.37900327899922
 32
0.0
 13
19.64032040790408
 23
26.37900327899922
 33
0.0
  0
MTEXT
  5
64AA
330
17
100
AcDbEntity
  8
R-ANNO-DIMS
  6
Continuous
100
AcDbMText
 10
18.64032040790408
 20
26.60400327899921
 30
0.0
 40
0.25
 41
0.0
 71
     5
 72
     1
  1
\A1;2"
 73
     1
 44
1.0
1001
ACAD
1000
MTEXTBEGIN
1070
    73
1070
     1
1070
    44
1040
1.0
1070
    74
1070
     0
1000
MTEXTEND
  0
LINE
  5
64AB
330
17
100
AcDbEntity
  8
R-ANNO-DIMS
  6
Continuous
100
AcDbLine
 10
17.64032040790407
 20
27.37900327899922
 30
0.0
 11
17.64032040790407
 21
26.19900327899922
 31
0.0
  0
LINE
  5
64AC
330
17
100
AcDbEntity
  8
R-ANNO-DIMS
  6
Continuous
100
AcDbLine
 10
17.39032040790408
 20
26.37900327899922
 30
0.0
 11
15.89031040790407
 21
26.37900327899922
 31
0.0
  0
SOLID
  5
64AD
330
17
100
AcDbEntity
  8
R-ANNO-DIMS
  6
Continuous
100
AcDbTrace
 10
17.39032040790408
 20
26.42066994566588
 30
0.0
 11
17.39032040790408
 21
26.33733661233255
 31
0.0
 12
17.64032040790407
 22
26.37900327899922
 32
0.0
 13
17.64032040790407
 23
26.37900327899922
 33
0.0
  0
SOLID
  5
64AE
330
17
100
AcDbEntity
  8
R-ANNO-DIMS
  6
Continuous
100
AcDbTrace
 10
15.89031040790407
 20
26.42066994566588
 30
0.0
 11
15.89031040790407
 21
26.33733661233255
 31
0.0
 12
15.64031040790407
 22
26.37900327899922
 32
0.0
 13
15.64031040790407
 23
26.37900327899922
 33
0.0
  0
MTEXT
  5
64AF
330
17
100
AcDbEntity
  8
R-ANNO-DIMS
  6
Continuous
100
AcDbMText
 10
16.64031540790407
 20
26.60400327899921
 30
0.0
 40
0.25
 41
0.0
 71
     5
 72
     1
  1
\A1;DLO
 73
     1
 44
1.0
1001
ACAD
1000
MTEXTBEGIN
1070
    73
1070
     1
1070
    44
1040
1.0
1070
    74
1070
     0
1000
MTEXTEND
  0
LINE
  5
64B0
330
17
100
AcDbEntity
  8
R-ANNO-DIMS
  6
Continuous
100
AcDbLine
 10
19.64032040790408
 20
27.75400327899922
 30
0.0
 11
19.64032040790408
 21
26.19900327899922
 31
0.0
  0
LINE
  5
64B1
330
17
100
AcDbEntity
  8
R-ANNO-DIMS
  6
Continuous
100
AcDbLine
 10
19.89032040790408
 20
26.37900327899922
 30
0.0
 11
21.39033040790408
 21
26.37900327899922
 31
0.0
  0
SOLID
  5
64B2
330
17
100
AcDbEntity
  8
R-ANNO-DIMS
  6
Continuous
100
AcDbTrace
 10
19.89032040790408
 20
26.42066994566588
 30
0.0
 11
19.89032040790408
 21
26.33733661233255
 31
0.0
 12
19.64032040790408
 22
26.37900327899922
 32
0.0
 13
19.64032040790408
 23
26.37900327899922
 33
0.0
  0
SOLID
  5
64B3
330
17
100
AcDbEntity
  8
R-ANNO-DIMS
  6
Continuous
100
AcDbTrace
 10
21.39033040790408
 20
26.42066994566588
 30
0.0
 11
21.39033040790408
 21
26.33733661233255
 31
0.0
 12
21.64033040790408
 22
26.37900327899922
 32
0.0
 13
21.64033040790408
 23
26.37900327899922
 33
0.0
  0
MTEXT
  5
64B4
330
17
100
AcDbEntity
  8
R-ANNO-DIMS
  6
Continuous
100
AcDbMText
 10
20.64032540790408
 20
26.60400327899921
 30
0.0
 40
0.25
 41
0.0
 71
     5
 72
     1
  1
\A1;DLO
 73
     1
 44
1.0
1001
ACAD
1000
MTEXTBEGIN
1070
    73
1070
     1
1070
    44
1040
1.0
1070
    74
1070
     0
1000
MTEXTEND
  0
LWPOLYLINE
  5
64B5
330
17
100
AcDbEntity
  8
R-SWTS-DET1
100
AcDbPolyline
 90
        6
 70
     0
 43
0.0
 10
42.73764701621451
 20
27.7177179325473
 10
42.73764701621451
 20
30.24270793254729
 10
42.93762701621451
 20
30.2927279325473
 10
42.53764701621451
 20
30.3927079325473
 10
42.73764701621451
 20
30.44270793254729
 10
42.73764701621451
 20
32.9677179325473
  0
LWPOLYLINE
  5
64B6
330
17
100
AcDbEntity
  8
R-SWTS-DET1
100
AcDbPolyline
 90
        6
 70
     0
 43
0.0
 10
36.73762701621451
 20
32.9677179325473
 10
36.73762701621451
 20
30.4427279325473
 10
36.5376470162145
 20
30.3927079325473
 10
36.93762701621452
 20
30.2927279325473
 10
36.73762701621451
 20
30.2427279325473
 10
36.73762701621451
 20
27.7177179325473
  0
LINE
  5
64B7
330
17
100
AcDbEntity
  8
R-SWTS-DET1
100
AcDbLine
 10
42.73764701621451
 20
27.98000327899921
 30
0.0
 11
36.73762701621451
 21
27.98000327899921
 31
0.0
  0
LINE
  5
64B8
330
17
100
AcDbEntity
  8
R-SWTS-DET1
100
AcDbLine
 10
38.73763701621451
 20
28.10500327899922
 30
0.0
 11
36.73762701621451
 21
28.10500327899922
 31
0.0
  0
LINE
  5
64B9
330
17
100
AcDbEntity
  8
R-SWTS-DET1
100
AcDbLine
 10
40.73763701621451
 20
28.10500327899922
 30
0.0
 11
42.73764701621451
 21
28.10500327899922
 31
0.0
  0
LINE
  5
64BA
330
17
100
AcDbEntity
  8
R-SWTS-DET1
100
AcDbLine
 10
42.73764701621451
 20
32.73000327899921
 30
0.0
 11
36.7376270162145
 21
32.73000327899921
 31
0.0
  0
LINE
  5
64BB
330
17
100
AcDbEntity
  8
R-SWTS-DET1
100
AcDbLine
 10
38.7376370162145
 20
32.60500327899921
 30
0.0
 11
36.7376270162145
 21
32.60500327899921
 31
0.0
  0
LINE
  5
64BC
330
17
100
AcDbEntity
  8
R-SWTS-DET1
100
AcDbLine
 10
40.7376370162145
 20
32.60500327899921
 30
0.0
 11
42.7376470162145
 21
32.60500327899921
 31
0.0
  0
TEXT
  5
64BD
330
17
100
AcDbEntity
  8
PART_NUMBERS
100
AcDbText
 10
36.91045907310512
 20
33.22020015768342
 30
0.0
 40
0.25
  1
451VG001 MULLION
100
AcDbText
  0
TEXT
  5
64BE
330
17
100
AcDbEntity
  8
PART_NUMBERS
100
AcDbText
 10
36.91045907310512
 20
33.72020015768342
 30
0.0
 40
0.25
  1
451CG002 POCKET FILLER
100
AcDbText
  0
LWPOLYLINE
  5
64BF
330
17
100
AcDbEntity
  8
R-SWTS-DET1
100
AcDbPolyline
 90
       98
 70
     1
 43
0.0
 10
40.63513701621448
 20
31.08129849356783
 10
40.59713701621447
 20
31.08129849356783
 10
40.49497878239812
 20
31.10373554155316
 42
-0.3541185725306792
 10
40.47913701621448
 20
31.12329849356783
 10
40.47913701621448
 20
31.16524849356783
 10
40.54575934668481
 20
31.23192616309749
 42
-0.1989123673796537
 10
40.56343701621448
 20
31.23924849356783
 10
40.63513701621448
 20
31.23924849356783
 10
40.63513701621448
 20
31.21024849356783
 10
40.73763701621447
 20
31.24627879659814
 10
40.73763701621447
 20
32.14874849356784
 10
40.65763701621448
 20
32.14874849356784
 10
40.65763701621448
 20
31.97874849356784
 10
40.57163701621448
 20
31.97874849356784
 10
40.57163701621448
 20
32.04074849356783
 10
40.35463701621448
 20
31.96174849356783
 42
1.003724381894516
 10
40.37863701621448
 20
31.89624849356784
 10
40.49113537227076
 20
31.93724789444168
 42
-0.5183857430387767
 10
40.51798311164352
 20
31.91860270057083
 42
0.4120800626174649
 10
40.53798258024651
 20
31.89874849356784
 10
40.64763701621448
 20
31.89874849356784
 42
-0.4378145317003978
 10
40.65763701621448
 20
31.88874849356784
 10
40.65763701621448
 20
31.76474849356784
 42
-0.2907175366164647
 10
40.64763701621448
 20
31.74474849356784
 10
40.64763701621448
 20
31.58274849356784
 10
40.65763701621448
 20
31.57274849356784
 10
40.64763701621448
 20
31.56274849356784
 10
40.64763701621448
 20
31.40806900164353
 42
-0.2679491924311257
 10
40.65763701621448
 20
31.39074849356783
 10
40.65763701621448
 20
31.38924849356783
 42
-0.4142135623730951
 10
40.58763701621447
 20
31.31924849356783
 10
40.5575815869659
 20
31.31924849356783
 42
0.1990202627215669
 10
40.48330455826975
 20
31.28846387612477
 10
40.42200383110045
 20
31.22711223022367
 42
-0.1990202627215582
 10
40.40785582563452
 20
31.22124849356784
 10
40.32763701621446
 20
31.22124849356783
 42
0.4142135623730753
 10
40.15763701621447
 20
31.05124849356784
 10
40.15763701621447
 20
29.65624849356784
 42
0.4142135623730693
 10
40.32763701621446
 20
29.48624849356784
 10
40.40785582563452
 20
29.48624849356783
 42
-0.1990202627215434
 10
40.42200383110045
 20
29.480384756912
 10
40.48330455826975
 20
29.4190331110109
 42
0.1990202627215654
 10
40.5575815869659
 20
29.38824849356784
 10
40.58763701621447
 20
29.38824849356784
 42
-0.4142135623730951
 10
40.65763701621448
 20
29.31824849356784
 10
40.65763701621448
 20
29.31674849356783
 42
-0.2679491924311376
 10
40.64763701621448
 20
29.29942798549215
 10
40.64763701621448
 20
29.14474849356783
 10
40.65763701621448
 20
29.13474849356783
 10
40.64763701621448
 20
29.12474849356783
 10
40.64763701621448
 20
28.96274849356783
 42
-0.2459617249876099
 10
40.65763701621448
 20
28.94274849356783
 10
40.65763701621448
 20
28.82874849356783
 42
-0.4142135623730951
 10
40.63763701621448
 20
28.80874849356784
 10
40.53798258024656
 20
28.80874849356784
 42
0.4120800626175069
 10
40.5179831116435
 20
28.78889428656484
 42
-0.518385743038754
 10
40.49113537227076
 20
28.77024909269399
 10
40.37863701621448
 20
28.81124849356783
 42
1.003724381894507
 10
40.35463701621448
 20
28.74574849356783
 10
40.57163701621448
 20
28.66674849356784
 10
40.57163701621448
 20
28.72874849356783
 10
40.65763701621448
 20
28.72874849356783
 10
40.65763701621448
 20
28.55874849356784
 10
40.73763701621447
 20
28.55874849356784
 10
40.73763701621447
 20
29.46121819053754
 10
40.63513701621448
 20
29.49724849356784
 10
40.63513701621448
 20
29.46824849356784
 10
40.56343701621448
 20
29.46824849356784
 42
-0.1989123673796526
 10
40.54575934668481
 20
29.47557082403818
 10
40.47913701621448
 20
29.54224849356784
 10
40.47913701621448
 20
29.58419849356784
 42
-0.3541185725306792
 10
40.49497878239812
 20
29.60376144558252
 10
40.59713701621447
 20
29.62619849356784
 10
40.63513701621448
 20
29.62619849356784
 10
40.63513701621448
 20
29.59719849356784
 10
40.64713701621448
 20
29.59719849356784
 42
0.4142135623730951
 10
40.66713701621448
 20
29.61719849356784
 10
40.66713701621448
 20
29.64619849356784
 42
0.4142135623730951
 10
40.64713701621448
 20
29.66619849356784
 10
40.44514201621447
 20
29.66619849356784
 42
0.4142135623730951
 10
40.40713701621448
 20
29.62819349356784
 10
40.42913701621448
 20
29.62819349356784
 10
40.42913701621448
 20
29.58624849356783
 42
-0.4142135623731471
 10
40.40913701621447
 20
29.56624849356783
 10
40.33763701621447
 20
29.56624849356784
 42
-0.4142135623730716
 10
40.23763701621447
 20
29.66624849356783
 10
40.23763701621447
 20
31.04124849356784
 42
-0.414213562373069
 10
40.33763701621447
 20
31.14124849356784
 10
40.40913701621447
 20
31.14124849356784
 42
-0.4142135623731081
 10
40.42913701621448
 20
31.12124849356784
 10
40.42913701621447
 20
31.07930349356783
 10
40.40713701621448
 20
31.07930349356783
 42
0.4142135623730951
 10
40.44514201621447
 20
31.04129849356783
 10
40.64713701621448
 20
31.04129849356783
 42
0.4142135623730951
 10
40.66713701621448
 20
31.06129849356783
 10
40.66713701621448
 20
31.09029849356783
 42
0.4142135623730951
 10
40.64713701621448
 20
31.11029849356783
 10
40.63513701621448
 20
31.11029849356783
  0
LWPOLYLINE
  5
64C0
330
17
100
AcDbEntity
  8
R-SWTS-DET1
100
AcDbPolyline
 90
      148
 70
     1
 43
0.0
 10
39.81763701621453
 20
29.45344559693665
 10
39.81763701621453
 20
29.37692835042907
 42
0.3242050878081617
 10
39.82796488506699
 20
29.36267453723604
 42
-0.8529632016673883
 10
39.82313701621453
 20
29.33244559693664
 10
39.81763701621453
 20
29.33244559693664
 10
39.81763701621453
 20
29.08244559693664
 10
39.82313701621453
 20
29.08244559693664
 42
-0.8529632016668454
 10
39.82796488506699
 20
29.05221665663729
 42
0.3242050878078117
 10
39.81763701621453
 20
29.03796284344432
 10
39.81763701621453
 20
28.96144559693664
 42
0.4142135623731015
 10
39.83763701621453
 20
28.94144559693664
 10
40.04263701621452
 20
28.94144559693664
 42
0.4142135623730951
 10
40.06263701621452
 20
28.96144559693664
 10
40.06263701621452
 20
29.03644559693664
 42
0.4142135623730951
 10
40.04763701621452
 20
29.05144559693664
 10
40.04713701621453
 20
29.05144559693664
 42
-0.9999999999999998
 10
40.04713701621453
 20
29.08244559693663
 10
40.11263701621452
 20
29.08244559693664
 10
40.11263701621453
 20
28.94144559693664
 42
-0.4142135623731173
 10
40.04263701621453
 20
28.87144559693664
 10
39.83763701621452
 20
28.87144559693664
 42
0.414213562373108
 10
39.81763701621453
 20
28.85144559693664
 10
39.81763701621452
 20
28.25627483936088
 42
0.4142135623730906
 10
39.87763701621452
 20
28.19627483936088
 10
40.59763701621451
 20
28.19627483936088
 42
0.4142135623730897
 10
40.65763701621452
 20
28.25627483936088
 10
40.65763701621452
 20
28.48027392699746
 10
40.63963701621452
 20
28.48027392699746
 42
-0.4142135623730951
 10
40.57763701621452
 20
28.54227392699746
 10
40.57763701621452
 20
28.73027392699745
 10
40.59563701621452
 20
28.73027392699745
 42
-0.4142135623730951
 10
40.65763701621452
 20
28.66827392699745
 10
40.65763701621452
 20
28.56027392699744
 10
40.73763701621452
 20
28.56027392699744
 10
40.73763701621452
 20
28.10627483936088
 10
38.73763701621452
 20
28.10627483936088
 10
38.73763701621452
 20
28.25129453633058
 10
38.84013701621452
 20
28.28732483936088
 10
38.84013701621452
 20
28.25832483936088
 10
38.91390929702209
 20
28.25832483936088
 42
0.1990202627215749
 10
38.92805730248801
 20
28.2641885760167
 10
38.99613701621452
 20
28.33232483936088
 10
38.99613701621452
 20
28.37427437174719
 42
0.3522182948120313
 10
38.98042736394442
 20
28.39380877515134
 10
38.87813701621452
 20
28.41627483936088
 10
38.84013701621452
 20
28.41627483936088
 10
38.84013701621452
 20
28.38727483936088
 10
38.82813701621452
 20
28.38727483936088
 42
-0.4142135623730951
 10
38.80813701621452
 20
28.40727483936089
 10
38.80813701621452
 20
28.43627483936089
 42
-0.4142135623730951
 10
38.82813701621452
 20
28.45627483936088
 10
39.03013201621453
 20
28.45627483936088
 42
-0.4142135623730882
 10
39.06813701621452
 20
28.41826983936089
 10
39.04613701621452
 20
28.41826983936089
 10
39.04613701621452
 20
28.35626983936089
 10
39.06813701621452
 20
28.35626983936089
 10
39.06813701621452
 20
28.29942283358906
 42
-0.198901884618123
 10
39.06227972225293
 20
28.285281268403
 10
39.00741928419122
 20
28.23041640454693
 42
0.6681640521692715
 10
39.02156199022962
 20
28.19627483936088
 10
39.67763701621452
 20
28.19627483936088
 42
0.4142135623730928
 10
39.73763701621452
 20
28.25627483936088
 10
39.73763701621453
 20
29.07244559693664
 10
39.74763701621453
 20
29.08244559693665
 10
39.73763701621453
 20
29.09244559693664
 10
39.73763701621453
 20
29.32244559693664
 10
39.74763701621453
 20
29.33244559693664
 10
39.73763701621453
 20
29.34244559693664
 10
39.73763701621453
 20
29.83227983936087
 42
0.4142135623730977
 10
39.63763701621452
 20
29.93227983936087
 10
39.07113701621452
 20
29.93227983936087
 42
0.4142135623730951
 10
39.04613701621452
 20
29.90727983936087
 10
39.04613701621452
 20
29.87027983936087
 10
39.06813701621452
 20
29.87027983936087
 42
-0.4142135623730951
 10
39.03013201621453
 20
29.83227483936087
 10
38.82813701621452
 20
29.83227483936087
 42
-0.4142135623730951
 10
38.80813701621452
 20
29.85227483936088
 10
38.80813701621452
 20
29.88127483936088
 42
-0.4142135623730951
 10
38.82813701621452
 20
29.90127483936087
 10
38.84013701621452
 20
29.90127483936087
 10
38.84013701621452
 20
29.87227483936088
 10
38.87813701621452
 20
29.87227483936088
 10
38.98029525003088
 20
29.8947118873462
 42
0.3541185725306697
 10
38.99613701621452
 20
29.91427483936087
 10
38.99613701621452
 20
29.95622483936088
 10
38.92951468574419
 20
30.02290250889053
 42
0.198912367379654
 10
38.91183701621452
 20
30.03022483936087
 10
38.84013701621452
 20
30.03022483936087
 10
38.84013701621452
 20
30.00122483936088
 10
38.73763701621452
 20
30.03725514239118
 10
38.73763701621452
 20
32.60627483936087
 10
40.73763701621452
 20
32.60627483936087
 10
40.73763701621452
 20
32.15227392699744
 10
40.65763701621452
 20
32.15227392699744
 10
40.65763701621452
 20
32.04427392699744
 42
-0.4142135623730951
 10
40.59563701621452
 20
31.98227392699744
 10
40.57763701621452
 20
31.98227392699744
 10
40.57763701621452
 20
32.17027392699744
 42
-0.4142135623730951
 10
40.63963701621452
 20
32.23227392699745
 10
40.65763701621452
 20
32.23227392699744
 10
40.65763701621452
 20
32.45627483936087
 42
0.414213562373094
 10
40.59763701621451
 20
32.51627483936088
 10
38.87763701621452
 20
32.51627483936088
 42
0.4142135623730951
 10
38.81763701621452
 20
32.45627483936087
 10
38.81763701621454
 20
31.73850467682166
 42
0.5680984128595057
 10
38.84715052972805
 20
31.72091226196104
 42
-0.3397540095737747
 10
39.04563701621452
 20
31.68902235588996
 10
39.04563701621453
 20
31.64505687166365
 10
39.0161563511657
 20
31.62803620176182
 42
-0.3865446749097419
 10
39.00301165259892
 20
31.6308943970912
 42
3.127286275187389
 10
39.00301165259893
 20
31.52065528163058
 42
-0.3865446749096575
 10
39.0161563511657
 20
31.52351347695997
 10
39.04563701621453
 20
31.50649280705814
 10
39.04563701621452
 20
31.46252732283183
 42
-0.3397540095737754
 10
38.84715052972806
 20
31.43063741676076
 42
0.5680984128594928
 10
38.81763701621454
 20
31.41304500190012
 10
38.81763701621454
 20
30.80750467682165
 42
0.5680984128595057
 10
38.84715052972805
 20
30.78991226196104
 42
-0.3397540095737747
 10
39.04563701621452
 20
30.75802235588996
 10
39.04563701621454
 20
30.71405687166365
 10
39.0161563511657
 20
30.69703620176182
 42
-0.3865446749097419
 10
39.00301165259892
 20
30.6998943970912
 42
3.127286275187389
 10
39.00301165259893
 20
30.58965528163057
 42
-0.3865446749096575
 10
39.0161563511657
 20
30.59251347695997
 10
39.04563701621454
 20
30.57549280705813
 10
39.04563701621452
 20
30.53152732283182
 42
-0.3397540095737754
 10
38.84715052972806
 20
30.49963741676076
 42
0.5680984128594928
 10
38.81763701621454
 20
30.48204500190013
 10
38.81763701621452
 20
30.18022483936087
 42
0.4142135623730951
 10
38.88763701621452
 20
30.11022483936087
 10
38.91769244546311
 20
30.11022483936087
 42
-0.1990202627215673
 10
38.99196947415925
 20
30.07944022191781
 10
39.05321524697575
 20
30.0181435760167
 42
0.1990202627215632
 10
39.06736325244168
 20
30.01227983936087
 10
39.64763701621453
 20
30.01227983936087
 42
-0.4142135623730935
 10
39.81763701621453
 20
29.84227983936087
 10
39.81763701621453
 20
29.56344559693665
 42
0.4142135623731081
 10
39.83763701621453
 20
29.54344559693664
 10
40.04263701621453
 20
29.54344559693664
 42
-0.4142135623731173
 10
40.11263701621453
 20
29.47344559693664
 10
40.11263701621452
 20
29.33244559693665
 10
40.04713701621453
 20
29.33244559693666
 42
-0.9999999999999998
 10
40.04713701621453
 20
29.36344559693665
 10
40.04763701621452
 20
29.36344559693665
 42
0.4142135623730951
 10
40.06263701621452
 20
29.37844559693665
 10
40.06263701621452
 20
29.45344559693665
 42
0.4142135623731015
 10
40.04263701621453
 20
29.47344559693665
 10
39.83763701621453
 20
29.47344559693665
 42
0.4142135623730951
  0
LINE
  5
64C1
330
17
100
AcDbEntity
  8
R-SWTS-DET3
100
AcDbLine
 10
39.11263701621452
 20
28.64471645189573
 30
0.0
 11
36.73763701621452
 21
28.64471645189573
 31
0.0
  0
LINE
  5
64C2
330
17
100
AcDbEntity
  8
R-SWTS-DET3
100
AcDbLine
 10
39.11263701621452
 20
28.89471645189573
 30
0.0
 11
36.73763701621452
 21
28.89471645189573
 31
0.0
  0
LINE
  5
64C3
330
17
100
AcDbEntity
  8
R-SWTS-DET3
100
AcDbLine
 10
39.11263701621452
 20
29.39471645189573
 30
0.0
 11
36.73763701621452
 21
29.39471645189573
 31
0.0
  0
LINE
  5
64C4
330
17
100
AcDbEntity
  8
R-SWTS-DET3
100
AcDbLine
 10
39.11263701621452
 20
29.64471645189573
 30
0.0
 11
36.73763701621452
 21
29.64471645189573
 31
0.0
  0
LINE
  5
64C5
330
17
100
AcDbEntity
  8
R-SWTS-DET2
100
AcDbLine
 10
38.73763701621451
 20
28.12741273744089
 30
0.0
 11
36.73763701621452
 21
28.12741273744089
 31
0.0
  0
LINE
  5
64C6
330
17
100
AcDbEntity
  8
R-SWTS-DET2
100
AcDbLine
 10
38.73763701621451
 20
30.16202016635058
 30
0.0
 11
36.73763701621452
 21
30.16202016635058
 31
0.0
  0
LINE
  5
64C7
330
17
100
AcDbEntity
  8
R-SWTS-DET3
100
AcDbLine
 10
39.11263701621452
 20
28.64471645189573
 30
0.0
 11
39.11263701621452
 21
29.64471645189573
 31
0.0
  0
LINE
  5
64C8
330
17
100
AcDbEntity
  8
R-SWTS-DET3
100
AcDbLine
 10
38.86263701621452
 20
28.89471645189573
 30
0.0
 11
38.86263701621452
 21
29.39471645189573
 31
0.0
  0
LINE
  5
64C9
330
17
100
AcDbEntity
  8
R-SWTS-DET3
100
AcDbLine
 10
40.36263701621449
 20
29.85374010610269
 30
0.0
 11
42.7376370162145
 21
29.85374010610269
 31
0.0
  0
LINE
  5
64CA
330
17
100
AcDbEntity
  8
R-SWTS-DET3
100
AcDbLine
 10
40.36263701621449
 20
30.10374010610269
 30
0.0
 11
42.7376370162145
 21
30.10374010610269
 31
0.0
  0
LINE
  5
64CB
330
17
100
AcDbEntity
  8
R-SWTS-DET3
100
AcDbLine
 10
40.36263701621449
 20
30.60374010610269
 30
0.0
 11
42.7376370162145
 21
30.60374010610269
 31
0.0
  0
LINE
  5
64CC
330
17
100
AcDbEntity
  8
R-SWTS-DET3
100
AcDbLine
 10
40.36263701621449
 20
30.85374010610269
 30
0.0
 11
42.7376370162145
 21
30.85374010610269
 31
0.0
  0
LINE
  5
64CD
330
17
100
AcDbEntity
  8
R-SWTS-DET2
100
AcDbLine
 10
40.7376370162145
 20
29.33643639164785
 30
0.0
 11
42.7376370162145
 21
29.33643639164785
 31
0.0
  0
LINE
  5
64CE
330
17
100
AcDbEntity
  8
R-SWTS-DET2
100
AcDbLine
 10
40.7376370162145
 20
31.37104382055754
 30
0.0
 11
42.7376370162145
 21
31.37104382055754
 31
0.0
  0
LINE
  5
64CF
330
17
100
AcDbEntity
  8
R-SWTS-DET3
100
AcDbLine
 10
40.36263701621449
 20
29.85374010610269
 30
0.0
 11
40.36263701621449
 21
30.85374010610269
 31
0.0
  0
LINE
  5
64D0
330
17
100
AcDbEntity
  8
R-SWTS-DET3
100
AcDbLine
 10
40.6126370162145
 20
30.10374010610269
 30
0.0
 11
40.6126370162145
 21
30.60374010610269
 31
0.0
  0
LWPOLYLINE
  5
64D1
330
17
100
AcDbEntity
  8
R-SWTS-DET2
100
AcDbPolyline
 90
       31
 70
     1
 43
0.0
 10
40.62363498805004
 20
29.4802515102489
 10
40.62850928864802
 20
29.50706803678783
 10
40.73574388632976
 20
29.4729379126667
 10
40.74061818520845
 20
29.41199126200663
 10
40.7376370162145
 20
29.33643639164785
 10
40.76864655883574
 20
29.34652693320617
 42
0.1257100272134179
 10
40.82038888642939
 20
29.57851833522822
 42
-0.2260837189018228
 10
40.87010674507349
 20
29.73210389565983
 10
40.98104736323384
 20
29.82765920531952
 42
0.6449762263124317
 10
40.96930602076018
 20
29.85359349733771
 10
40.8400690851308
 20
29.85201376030965
 42
0.1518691569180708
 10
40.79563393078154
 20
29.83566098371332
 10
40.73570815151306
 20
29.79715779541807
 42
-0.0293454671788447
 10
40.68382550832044
 20
29.77976290621517
 10
40.56203149848339
 20
29.76253261663165
 42
-0.6538117075652882
 10
40.55504476151803
 20
29.78277342753451
 10
40.72029367900795
 20
29.82686517475683
 42
0.8886355728344963
 10
40.71823224810857
 20
29.85201376030965
 10
40.5839866277159
 20
29.85201376030965
 42
0.0642046489364144
 10
40.39537037100862
 20
29.80958129840022
 42
0.6896355001773956
 10
40.39537037100862
 20
29.70697256801212
 42
0.0703560868358924
 10
40.5839866277159
 20
29.66574010610269
 10
40.67968943804954
 20
29.66574010610269
 10
40.67968943804954
 20
29.5923933481261
 10
40.62607213834903
 20
29.57045255330863
 10
40.62119783947034
 20
29.60945841122211
 10
40.58464059014343
 20
29.5753282850301
 10
40.56270624089114
 20
29.60702054536138
 10
40.5090889429099
 20
29.54607389263043
 10
40.57489199066678
 20
29.49000297369182
 10
40.58464059014343
 20
29.51438163437003
  0
LWPOLYLINE
  5
64D2
330
17
100
AcDbEntity
  8
R-SWTS-DET2
100
AcDbPolyline
 90
       31
 70
     1
 43
0.0
 10
40.62363498805004
 20
31.22722870195648
 10
40.62850928864801
 20
31.20041217541755
 10
40.73574388632976
 20
31.23454229953869
 10
40.74061818520845
 20
31.29548895019875
 10
40.7376370162145
 20
31.37104382055754
 10
40.76864655883574
 20
31.36095327899921
 42
-0.1257100272134179
 10
40.82038888642939
 20
31.12896187697716
 42
0.2260837189018228
 10
40.87010674507349
 20
30.97537631654555
 10
40.98104736323384
 20
30.87982100688587
 42
-0.6449762263124317
 10
40.96930602076018
 20
30.85388671486768
 10
40.8400690851308
 20
30.85546645189573
 42
-0.1518691569180708
 10
40.79563393078154
 20
30.87181922849206
 10
40.73570815151306
 20
30.91032241678731
 42
0.0293454671788447
 10
40.68382550832044
 20
30.92771730599021
 10
40.56203149848339
 20
30.94494759557374
 42
0.6538117075652882
 10
40.55504476151803
 20
30.92470678467088
 10
40.72029367900795
 20
30.88061503744855
 42
-0.8886355728344963
 10
40.71823224810857
 20
30.85546645189573
 10
40.5839866277159
 20
30.85546645189573
 42
-0.0642046489364144
 10
40.39537037100862
 20
30.89789891380516
 42
-0.6896355001773956
 10
40.39537037100862
 20
31.00050764419326
 42
-0.0703560868358924
 10
40.5839866277159
 20
31.04174010610269
 10
40.67968943804954
 20
31.04174010610269
 10
40.67968943804954
 20
31.11508686407928
 10
40.62607213834903
 20
31.13702765889675
 10
40.62119783947034
 20
31.09802180098327
 10
40.58464059014343
 20
31.13215192717528
 10
40.56270624089114
 20
31.100459666844
 10
40.5090889429099
 20
31.16140631957495
 10
40.57489199066678
 20
31.21747723851356
 10
40.58464059014343
 20
31.19309857783536
  0
LWPOLYLINE
  5
64D3
330
17
100
AcDbEntity
  8
R-SWTS-DET2
100
AcDbPolyline
 90
       31
 70
     1
 43
0.0
 10
38.85163904437897
 20
28.27122785604194
 10
38.846764743781
 20
28.29804438258087
 10
38.73953014609925
 20
28.26391425845974
 10
38.73465584722056
 20
28.20296760779967
 10
38.73763701621451
 20
28.12741273744089
 10
38.70662747359327
 20
28.13750327899921
 42
-0.1257100272134179
 10
38.65488514599962
 20
28.36949468102126
 42
0.2260837189018228
 10
38.60516728735552
 20
28.52308024145287
 10
38.49422666919517
 20
28.61863555111256
 42
-0.6449762263124317
 10
38.50596801166883
 20
28.64456984313075
 10
38.63520494729821
 20
28.64299010610269
 42
-0.1518691569180708
 10
38.67964010164747
 20
28.62663732950636
 10
38.73956588091595
 20
28.58813414121111
 42
0.0293454671788447
 10
38.79144852410857
 20
28.57073925200822
 10
38.91324253394561
 20
28.55350896242469
 42
0.6538117075652882
 10
38.92022927091098
 20
28.57374977332755
 10
38.75498035342106
 20
28.61784152054987
 42
-0.8886355728344963
 10
38.75704178432044
 20
28.64299010610269
 10
38.8912874047131
 20
28.64299010610269
 42
-0.0642046489364144
 10
39.07990366142038
 20
28.60055764419327
 42
-0.6896355001773956
 10
39.07990366142039
 20
28.49794891380516
 42
-0.0703560868358924
 10
38.8912874047131
 20
28.45671645189574
 10
38.79558459437947
 20
28.45671645189574
 10
38.79558459437947
 20
28.38336969391914
 10
38.84920189407998
 20
28.36142889910167
 10
38.85407619295867
 20
28.40043475701515
 10
38.89063344228559
 20
28.36630463082314
 10
38.91256779153787
 20
28.39799689115442
 10
38.96618508951911
 20
28.33705023842347
 10
38.90038204176224
 20
28.28097931948486
 10
38.89063344228559
 20
28.30535798016307
  0
LWPOLYLINE
  5
64D4
330
17
100
AcDbEntity
  8
R-SWTS-DET2
100
AcDbPolyline
 90
       31
 70
     1
 43
0.0
 10
38.85163904437897
 20
30.01820504774953
 10
38.846764743781
 20
29.99138852121059
 10
38.73953014609925
 20
30.02551864533173
 10
38.73465584722056
 20
30.08646529599179
 10
38.73763701621451
 20
30.16202016635058
 10
38.70662747359327
 20
30.15192962479226
 42
0.1257100272134179
 10
38.65488514599962
 20
29.9199382227702
 42
-0.2260837189018228
 10
38.60516728735552
 20
29.7663526623386
 10
38.49422666919517
 20
29.67079735267891
 42
0.6449762263124317
 10
38.50596801166883
 20
29.64486306066072
 10
38.63520494729821
 20
29.64644279768877
 42
0.1518691569180708
 10
38.67964010164747
 20
29.6627955742851
 10
38.73956588091595
 20
29.70129876258035
 42
-0.0293454671788447
 10
38.79144852410857
 20
29.71869365178325
 10
38.91324253394561
 20
29.73592394136678
 42
-0.6538117075652882
 10
38.92022927091098
 20
29.71568313046392
 10
38.75498035342106
 20
29.6715913832416
 42
0.8886355728344963
 10
38.75704178432044
 20
29.64644279768877
 10
38.8912874047131
 20
29.64644279768877
 42
0.0642046489364144
 10
39.07990366142039
 20
29.6888752595982
 42
0.6896355001773956
 10
39.07990366142039
 20
29.7914839899863
 42
0.0703560868358924
 10
38.8912874047131
 20
29.83271645189573
 10
38.79558459437947
 20
29.83271645189573
 10
38.79558459437947
 20
29.90606320987232
 10
38.84920189407998
 20
29.92800400468979
 10
38.85407619295867
 20
29.88899814677631
 10
38.89063344228559
 20
29.92312827296832
 10
38.91256779153787
 20
29.89143601263704
 10
38.96618508951911
 20
29.95238266536799
 10
38.90038204176224
 20
30.0084535843066
 10
38.89063344228559
 20
29.9840749236284
  0
LINE
  5
64D5
330
17
100
AcDbEntity
  8
R-ANNO-DIMS
  6
Continuous
100
AcDbLine
 10
38.7376370162145
 20
27.7385746910332
 30
0.0
 11
38.7376370162145
 21
26.1835746910332
 31
0.0
  0
LINE
  5
64D6
330
17
100
AcDbEntity
  8
R-ANNO-DIMS
  6
Continuous
100
AcDbLine
 10
40.73763701621451
 20
27.7385746910332
 30
0.0
 11
40.73763701621451
 21
26.1835746910332
 31
0.0
  0
LINE
  5
64D7
330
17
100
AcDbEntity
  8
R-ANNO-DIMS
  6
Continuous
100
AcDbLine
 10
38.9876370162145
 20
26.3635746910332
 30
0.0
 11
40.4876370162145
 21
26.3635746910332
 31
0.0
  0
SOLID
  5
64D8
330
17
100
AcDbEntity
  8
R-ANNO-DIMS
  6
Continuous
100
AcDbTrace
 10
38.9876370162145
 20
26.40524135769987
 30
0.0
 11
38.9876370162145
 21
26.32190802436654
 31
0.0
 12
38.7376370162145
 22
26.3635746910332
 32
0.0
 13
38.7376370162145
 23
26.3635746910332
 33
0.0
  0
SOLID
  5
64D9
330
17
100
AcDbEntity
  8
R-ANNO-DIMS
  6
Continuous
100
AcDbTrace
 10
40.4876370162145
 20
26.40524135769987
 30
0.0
 11
40.4876370162145
 21
26.32190802436654
 31
0.0
 12
40.73763701621451
 22
26.3635746910332
 32
0.0
 13
40.73763701621451
 23
26.3635746910332
 33
0.0
  0
MTEXT
  5
64DA
330
17
100
AcDbEntity
  8
R-ANNO-DIMS
  6
Continuous
100
AcDbMText
 10
39.7376370162145
 20
26.5885746910332
 30
0.0
 40
0.25
 41
0.0
 71
     5
 72
     1
  1
\A1;2"
 73
     1
 44
1.0
1001
ACAD
1000
MTEXTBEGIN
1070
    73
1070
     1
1070
    44
1040
1.0
1070
    74
1070
     0
1000
MTEXTEND
  0
LINE
  5
64DB
330
17
100
AcDbEntity
  8
R-ANNO-DIMS
  6
Continuous
100
AcDbLine
 10
40.73763701621451
 20
27.7385746910332
 30
0.0
 11
40.73763701621451
 21
26.1835746910332
 31
0.0
  0
LINE
  5
64DC
330
17
100
AcDbEntity
  8
R-ANNO-DIMS
  6
Continuous
100
AcDbLine
 10
40.9876370162145
 20
26.3635746910332
 30
0.0
 11
42.4876470162145
 21
26.3635746910332
 31
0.0
  0
SOLID
  5
64DD
330
17
100
AcDbEntity
  8
R-ANNO-DIMS
  6
Continuous
100
AcDbTrace
 10
40.9876370162145
 20
26.40524135769987
 30
0.0
 11
40.9876370162145
 21
26.32190802436654
 31
0.0
 12
40.73763701621451
 22
26.3635746910332
 32
0.0
 13
40.73763701621451
 23
26.3635746910332
 33
0.0
  0
SOLID
  5
64DE
330
17
100
AcDbEntity
  8
R-ANNO-DIMS
  6
Continuous
100
AcDbTrace
 10
42.4876470162145
 20
26.40524135769987
 30
0.0
 11
42.4876470162145
 21
26.32190802436654
 31
0.0
 12
42.7376470162145
 22
26.3635746910332
 32
0.0
 13
42.7376470162145
 23
26.3635746910332
 33
0.0
  0
MTEXT
  5
64DF
330
17
100
AcDbEntity
  8
R-ANNO-DIMS
  6
Continuous
100
AcDbMText
 10
41.73764201621451
 20
26.5885746910332
 30
0.0
 40
0.25
 41
0.0
 71
     5
 72
     1
  1
\A1;DLO
 73
     1
 44
1.0
1001
ACAD
1000
MTEXTBEGIN
1070
    73
1070
     1
1070
    44
1040
1.0
1070
    74
1070
     0
1000
MTEXTEND
  0
LINE
  5
64E0
330
17
100
AcDbEntity
  8
R-ANNO-DIMS
  6
Continuous
100
AcDbLine
 10
38.7376370162145
 20
27.3635746910332
 30
0.0
 11
38.7376370162145
 21
26.1835746910332
 31
0.0
  0
LINE
  5
64E1
330
17
100
AcDbEntity
  8
R-ANNO-DIMS
  6
Continuous
100
AcDbLine
 10
38.4876370162145
 20
26.3635746910332
 30
0.0
 11
36.9876270162145
 21
26.3635746910332
 31
0.0
  0
SOLID
  5
64E2
330
17
100
AcDbEntity
  8
R-ANNO-DIMS
  6
Continuous
100
AcDbTrace
 10
38.4876370162145
 20
26.40524135769987
 30
0.0
 11
38.4876370162145
 21
26.32190802436654
 31
0.0
 12
38.7376370162145
 22
26.3635746910332
 32
0.0
 13
38.7376370162145
 23
26.3635746910332
 33
0.0
  0
SOLID
  5
64E3
330
17
100
AcDbEntity
  8
R-ANNO-DIMS
  6
Continuous
100
AcDbTrace
 10
36.9876270162145
 20
26.40524135769987
 30
0.0
 11
36.9876270162145
 21
26.32190802436654
 31
0.0
 12
36.7376270162145
 22
26.3635746910332
 32
0.0
 13
36.7376270162145
 23
26.3635746910332
 33
0.0
  0
MTEXT
  5
64E4
330
17
100
AcDbEntity
  8
R-ANNO-DIMS
  6
Continuous
100
AcDbMText
 10
37.7376320162145
 20
26.5885746910332
 30
0.0
 40
0.25
 41
0.0
 71
     5
 72
     1
  1
\A1;DLO
 73
     1
 44
1.0
1001
ACAD
1000
MTEXTBEGIN
1070
    73
1070
     1
1070
    44
1040
1.0
1070
    74
1070
     0
1000
MTEXTEND
  0
LWPOLYLINE
  5
64E5
330
17
100
AcDbEntity
  8
R-SWTS-DET1
100
AcDbPolyline
 90
        6
 70
     0
 43
0.0
 10
32.34050670080362
 20
27.75400327899922
 10
32.34050670080362
 20
30.27899327899921
 10
32.54048670080361
 20
30.32901327899921
 10
32.14050670080361
 20
30.42899327899922
 10
32.34050670080362
 20
30.47899327899922
 10
32.34050670080362
 20
33.00400327899922
  0
LWPOLYLINE
  5
64E6
330
17
100
AcDbEntity
  8
R-SWTS-DET1
100
AcDbPolyline
 90
        6
 70
     0
 43
0.0
 10
26.34048670080361
 20
33.00400327899922
 10
26.34048670080361
 20
30.47901327899922
 10
26.1405067008036
 20
30.42899327899922
 10
26.54048670080361
 20
30.32901327899921
 10
26.34048670080361
 20
30.27901327899922
 10
26.34048670080361
 20
27.75400327899922
  0
LINE
  5
64E7
330
17
100
AcDbEntity
  8
R-SWTS-DET1
100
AcDbLine
 10
26.34048670080361
 20
27.98000327899921
 30
0.0
 11
32.34050670080362
 21
27.98000327899921
 31
0.0
  0
LINE
  5
64E8
330
17
100
AcDbEntity
  8
R-SWTS-DET1
100
AcDbLine
 10
28.34049670080361
 20
28.10500327899922
 30
0.0
 11
26.34048670080361
 21
28.10500327899922
 31
0.0
  0
LINE
  5
64E9
330
17
100
AcDbEntity
  8
R-SWTS-DET1
100
AcDbLine
 10
26.34048670080361
 20
32.73000327899922
 30
0.0
 11
32.34050670080362
 21
32.73000327899922
 31
0.0
  0
LINE
  5
64EA
330
17
100
AcDbEntity
  8
R-SWTS-DET1
100
AcDbLine
 10
30.34049670080361
 20
32.60500327899921
 30
0.0
 11
32.34050670080362
 21
32.60500327899921
 31
0.0
  0
LINE
  5
64EB
330
17
100
AcDbEntity
  8
R-SWTS-DET1
100
AcDbLine
 10
30.34049670080361
 20
28.10500327899922
 30
0.0
 11
32.34050670080362
 21
28.10500327899922
 31
0.0
  0
LINE
  5
64EC
330
17
100
AcDbEntity
  8
R-SWTS-DET1
100
AcDbLine
 10
28.34049670080361
 20
32.60500327899922
 30
0.0
 11
26.3404867008036
 21
32.60500327899922
 31
0.0
  0
TEXT
  5
64ED
330
17
100
AcDbEntity
  8
PART_NUMBERS
100
AcDbText
 10
26.51331875769421
 20
33.25776286646402
 30
0.0
 40
0.25
  1
451VG069 TRANSITION MULLION
100
AcDbText
  0
LWPOLYLINE
  5
64EE
330
17
100
AcDbEntity
  8
R-SWTS-DET1
100
AcDbPolyline
 90
      134
 70
     1
 43
0.0
 10
30.23799670080361
 20
28.38600327899921
 10
30.23799670080361
 20
28.41500327899921
 10
30.19999670080361
 20
28.41500327899921
 10
30.09783846698726
 20
28.39256623101389
 42
0.3541185725306862
 10
30.08199670080361
 20
28.37300327899921
 10
30.08199670080361
 20
28.33105327899922
 10
30.14861903127395
 20
28.26437560946955
 42
0.1989123673796512
 10
30.16629670080361
 20
28.25705327899921
 10
30.23799670080361
 20
28.25705327899921
 10
30.23799670080361
 20
28.28605327899921
 10
30.34049670080361
 20
28.25002297596891
 10
30.34049670080361
 20
28.10500327899921
 10
28.34049670080361
 20
28.10500327899921
 10
28.34049670080361
 20
28.19500327899922
 10
28.66949670080361
 20
28.19500327899922
 10
28.66949670080361
 20
28.25702104595218
 42
-0.6681786379192535
 10
28.68656776861548
 20
28.26409211376405
 10
28.75565660338032
 20
28.19500327899922
 10
28.88662630843696
 20
28.19500327899922
 42
0.4142135623730847
 10
28.91162630843697
 20
28.22000327899921
 10
28.91162630843697
 20
28.48231982067732
 42
0.4142135623730951
 10
28.81162630843697
 20
28.58231982067732
 10
28.56676296903975
 20
28.58231982067732
 10
28.55091881795544
 20
28.55487694599652
 42
-0.4142135623730951
 10
28.53042843689868
 20
28.54938656493975
 10
28.48089779449867
 20
28.57798309466254
 42
-0.2679491924311083
 10
28.47339779449867
 20
28.5909734757193
 10
28.47339779449867
 20
28.61755558386986
 42
-0.4142135623730951
 10
28.48839779449867
 20
28.63255558386986
 10
28.81162630843696
 20
28.63255558386986
 42
-0.4142135623730968
 10
28.96162630843696
 20
28.48255558386986
 10
28.96162630843696
 20
28.22000327899921
 42
0.4142135623730847
 10
28.98662630843696
 20
28.19500327899922
 10
29.19049670080361
 20
28.19500327899922
 42
0.4142135623730971
 10
29.25049670080361
 20
28.25500327899922
 10
29.25049670080361
 20
28.87000827899919
 42
0.4142135623730821
 10
29.23049670080361
 20
28.89000827899919
 10
29.03549670080361
 20
28.89000827899919
 42
-0.4142135623730951
 10
28.96549670080361
 20
28.96000827899919
 10
28.96549670080361
 20
29.10100827899919
 10
29.0309967008036
 20
29.10100827899919
 42
-0.9999999999999998
 10
29.03099670080361
 20
29.07000827899919
 10
29.03049670080361
 20
29.07000827899919
 42
0.4142135623730951
 10
29.01549670080361
 20
29.05500827899919
 10
29.01549670080361
 20
28.97500827899919
 42
0.4142135623730951
 10
29.03049670080361
 20
28.96000827899919
 10
29.2454967008036
 20
28.96000827899919
 42
0.4142135623730951
 10
29.2604967008036
 20
28.97500827899919
 10
29.2604967008036
 20
29.05500827899919
 42
0.4142135623730951
 10
29.2454967008036
 20
29.07000827899919
 10
29.2449967008036
 20
29.07000827899919
 42
-0.9999999999999998
 10
29.2449967008036
 20
29.10100827899918
 10
29.2604967008036
 20
29.10100827899918
 10
29.2604967008036
 20
29.35100827899918
 10
29.2449967008036
 20
29.35100827899919
 42
-0.9999999999999998
 10
29.2449967008036
 20
29.38200827899919
 10
29.2454967008036
 20
29.38200827899919
 42
0.4142135623730951
 10
29.2604967008036
 20
29.39700827899919
 10
29.2604967008036
 20
29.47700827899918
 42
0.4142135623730951
 10
29.2454967008036
 20
29.49200827899919
 10
29.03049670080361
 20
29.49200827899919
 42
0.4142135623730951
 10
29.01549670080361
 20
29.47700827899918
 10
29.01549670080361
 20
29.39700827899919
 42
0.4142135623730951
 10
29.03049670080361
 20
29.38200827899919
 10
29.0309967008036
 20
29.38200827899919
 42
-0.9999999999999998
 10
29.0309967008036
 20
29.35100827899919
 10
28.96549670080361
 20
29.35100827899919
 10
28.9654967008036
 20
29.49200827899919
 42
-0.41421356237311
 10
29.0354967008036
 20
29.56200827899919
 10
29.23049670080361
 20
29.56200827899919
 42
0.4142135623730951
 10
29.25049670080361
 20
29.58200827899919
 10
29.25049670080361
 20
29.83100827899919
 42
-0.4142135623730855
 10
29.4404967008036
 20
30.02100827899919
 10
30.01040904531148
 20
30.02100827899921
 42
0.1990202627215611
 10
30.0280940521439
 20
30.02833794981899
 10
30.08787510744691
 20
30.08816866155615
 42
-0.1990202627215691
 10
30.16215213614305
 20
30.11895327899921
 10
30.17049670080361
 20
30.11895327899921
 42
0.4142135623730951
 10
30.25049670080361
 20
30.19895327899921
 10
30.25049670080361
 20
32.35125327899921
 42
0.4142135623731026
 10
30.18049670080361
 20
32.42125327899921
 10
30.15135099413727
 20
32.42125327899921
 42
0.4142135623730876
 10
30.08135099413727
 20
32.35125327899921
 10
30.08135099413727
 20
32.34058282445376
 42
0.081971439864274
 10
30.13426591586589
 20
32.1813281109414
 42
-0.2574642289896802
 10
30.13391070496205
 20
32.16322220962926
 10
30.12158778086722
 20
32.1418782789992
 42
-0.5825402726417694
 10
30.08896815264568
 20
32.14213165737759
 42
-0.1277034272886839
 10
30.01649670080361
 20
32.42125327899922
 10
30.01649670080361
 20
32.51500327899921
 10
30.34049670080361
 20
32.51500327899921
 10
30.34049670080361
 20
30.03598358202952
 10
30.23799670080361
 20
29.99995327899922
 10
30.23799670080361
 20
30.02895327899921
 10
30.16629670080361
 20
30.02895327899921
 42
0.1989123673796511
 10
30.14861903127395
 20
30.02163094852888
 10
30.08199670080361
 20
29.95495327899921
 10
30.08199670080361
 20
29.91300327899921
 42
0.3541185725307012
 10
30.09783846698725
 20
29.89344032698454
 10
30.19999670080361
 20
29.87100327899921
 10
30.23799670080361
 20
29.87100327899921
 10
30.23799670080361
 20
29.90000327899921
 10
30.24999670080361
 20
29.90000327899921
 42
-0.4142135623730951
 10
30.26999670080361
 20
29.88000327899921
 10
30.26999670080361
 20
29.85100327899921
 42
-0.4142135623730951
 10
30.24999670080361
 20
29.83100327899921
 10
30.0480017008036
 20
29.83100327899921
 42
-0.4142135623730951
 10
30.00999670080361
 20
29.86900827899921
 10
30.03199670080361
 20
29.86900827899921
 10
30.03199670080361
 20
29.90600827899921
 42
0.4142135623730951
 10
30.00699670080361
 20
29.93100827899921
 10
29.44049670080361
 20
29.93100827899919
 42
0.4142135623730886
 10
29.34049670080361
 20
29.83100827899919
 10
29.34049670080361
 20
29.36100827899918
 10
29.33049670080361
 20
29.35100827899918
 10
29.34049670080361
 20
29.34100827899918
 10
29.34049670080361
 20
29.11100827899918
 10
29.33049670080361
 20
29.10100827899918
 10
29.34049670080361
 20
29.09100827899918
 10
29.34049670080361
 20
28.25500327899922
 42
0.414213562373093
 10
29.40049670080361
 20
28.19500327899921
 10
30.0565717267885
 20
28.19500327899922
 42
0.6681640521692851
 10
30.0707144328269
 20
28.22914484418527
 10
30.01731831825561
 20
28.28254526641854
 42
-0.1989018846181274
 10
30.00999670080361
 20
28.30022222290111
 10
30.00999670080361
 20
28.35499827899921
 10
30.03199670080361
 20
28.35499827899921
 10
30.03199670080361
 20
28.41699827899922
 10
30.00999670080361
 20
28.41699827899922
 42
-0.4142135623730951
 10
30.0480017008036
 20
28.45500327899921
 10
30.24999670080361
 20
28.45500327899921
 42
-0.4142135623730951
 10
30.26999670080361
 20
28.43500327899921
 10
30.26999670080361
 20
28.40600327899921
 42
-0.4142135623730951
 10
30.24999670080361
 20
28.38600327899921
  0
LWPOLYLINE
  5
64EF
330
17
100
AcDbEntity
  8
R-SWTS-DET1
100
AcDbPolyline
 90
      134
 70
     1
 43
0.0
 10
28.44299670080362
 20
32.32400327899922
 10
28.44299670080362
 20
32.29500327899923
 10
28.48099670080362
 20
32.29500327899923
 10
28.58315493461997
 20
32.31744032698455
 42
0.3541185725306862
 10
28.59899670080361
 20
32.33700327899922
 10
28.59899670080362
 20
32.37895327899922
 10
28.53237437033328
 20
32.44563094852889
 42
0.1989123673796512
 10
28.51469670080362
 20
32.45295327899923
 10
28.44299670080362
 20
32.45295327899923
 10
28.44299670080362
 20
32.42395327899922
 10
28.34049670080361
 20
32.45998358202953
 10
28.34049670080361
 20
32.60500327899922
 10
30.34049670080361
 20
32.60500327899922
 10
30.34049670080361
 20
32.51500327899922
 10
30.01149670080361
 20
32.51500327899922
 10
30.01149670080361
 20
32.45298551204625
 42
-0.6681786379192535
 10
29.99442563299175
 20
32.44591444423439
 10
29.92533679822691
 20
32.51500327899922
 10
29.79436709317027
 20
32.51500327899922
 42
0.4142135623730847
 10
29.76936709317027
 20
32.49000327899922
 10
29.76936709317026
 20
32.22768673732111
 42
0.4142135623730951
 10
29.86936709317026
 20
32.12768673732111
 10
30.11423043256748
 20
32.12768673732111
 10
30.13007458365179
 20
32.15512961200192
 42
-0.4142135623730951
 10
30.15056496470855
 20
32.16061999305868
 10
30.20009560710856
 20
32.1320234633359
 42
-0.2679491924311083
 10
30.20759560710856
 20
32.11903308227913
 10
30.20759560710856
 20
32.09245097412857
 42
-0.4142135623730951
 10
30.19259560710856
 20
32.07745097412857
 10
29.86936709317026
 20
32.07745097412857
 42
-0.4142135623730968
 10
29.71936709317026
 20
32.22745097412857
 10
29.71936709317027
 20
32.49000327899922
 42
0.4142135623730847
 10
29.69436709317026
 20
32.51500327899922
 10
29.49049670080362
 20
32.51500327899922
 42
0.4142135623730971
 10
29.43049670080362
 20
32.45500327899922
 10
29.43049670080362
 20
31.83999827899925
 42
0.4142135623730821
 10
29.45049670080362
 20
31.81999827899924
 10
29.64549670080362
 20
31.81999827899924
 42
-0.4142135623730951
 10
29.71549670080362
 20
31.74999827899924
 10
29.71549670080362
 20
31.60899827899925
 10
29.64999670080362
 20
31.60899827899925
 42
-0.9999999999999998
 10
29.64999670080362
 20
31.63999827899925
 10
29.65049670080361
 20
31.63999827899925
 42
0.4142135623730951
 10
29.66549670080361
 20
31.65499827899925
 10
29.66549670080361
 20
31.73499827899924
 42
0.4142135623730951
 10
29.65049670080361
 20
31.74999827899924
 10
29.43549670080362
 20
31.74999827899924
 42
0.4142135623730951
 10
29.42049670080362
 20
31.73499827899924
 10
29.42049670080362
 20
31.65499827899925
 42
0.4142135623730951
 10
29.43549670080362
 20
31.63999827899925
 10
29.43599670080362
 20
31.63999827899925
 42
-0.9999999999999998
 10
29.43599670080362
 20
31.60899827899925
 10
29.42049670080362
 20
31.60899827899925
 10
29.42049670080362
 20
31.35899827899925
 10
29.43599670080362
 20
31.35899827899925
 42
-0.9999999999999998
 10
29.43599670080362
 20
31.32799827899925
 10
29.43549670080362
 20
31.32799827899925
 42
0.4142135623730951
 10
29.42049670080362
 20
31.31299827899925
 10
29.42049670080362
 20
31.23299827899925
 42
0.4142135623730951
 10
29.43549670080362
 20
31.21799827899925
 10
29.65049670080361
 20
31.21799827899925
 42
0.4142135623730951
 10
29.66549670080361
 20
31.23299827899925
 10
29.66549670080361
 20
31.31299827899925
 42
0.4142135623730951
 10
29.65049670080361
 20
31.32799827899925
 10
29.64999670080362
 20
31.32799827899925
 42
-0.9999999999999998
 10
29.64999670080362
 20
31.35899827899924
 10
29.71549670080362
 20
31.35899827899925
 10
29.71549670080362
 20
31.21799827899925
 42
-0.41421356237311
 10
29.64549670080362
 20
31.14799827899925
 10
29.45049670080362
 20
31.14799827899925
 42
0.4142135623730951
 10
29.43049670080361
 20
31.12799827899924
 10
29.43049670080362
 20
30.87899827899925
 42
-0.4142135623730855
 10
29.24049670080362
 20
30.68899827899925
 10
28.67058435629574
 20
30.68899827899922
 42
0.1990202627215611
 10
28.65289934946332
 20
30.68166860817945
 10
28.59311829416031
 20
30.62183789644228
 42
-0.1990202627215691
 10
28.51884126546417
 20
30.59105327899922
 10
28.51049670080361
 20
30.59105327899922
 42
0.4142135623730951
 10
28.43049670080361
 20
30.51105327899922
 10
28.43049670080361
 20
28.35875327899922
 42
0.4142135623731026
 10
28.50049670080361
 20
28.28875327899922
 10
28.52964240746996
 20
28.28875327899922
 42
0.4142135623730876
 10
28.59964240746995
 20
28.35875327899922
 10
28.59964240746995
 20
28.36942373354467
 42
0.081971439864274
 10
28.54672748574133
 20
28.52867844705704
 42
-0.2574642289896802
 10
28.54708269664517
 20
28.54678434836918
 10
28.55940562074
 20
28.56812827899923
 42
-0.5825402726417694
 10
28.59202524896154
 20
28.56787490062085
 42
-0.1277034272886839
 10
28.66449670080361
 20
28.28875327899922
 10
28.66449670080361
 20
28.19500327899922
 10
28.34049670080361
 20
28.19500327899922
 10
28.34049670080361
 20
30.67402297596892
 10
28.44299670080362
 20
30.71005327899922
 10
28.44299670080362
 20
30.68105327899922
 10
28.51469670080362
 20
30.68105327899922
 42
0.1989123673796511
 10
28.53237437033328
 20
30.68837560946956
 10
28.59899670080362
 20
30.75505327899922
 10
28.59899670080362
 20
30.79700327899922
 42
0.3541185725307012
 10
28.58315493461997
 20
30.8165662310139
 10
28.48099670080362
 20
30.83900327899922
 10
28.44299670080362
 20
30.83900327899922
 10
28.44299670080362
 20
30.81000327899922
 10
28.43099670080361
 20
30.81000327899922
 42
-0.4142135623730951
 10
28.41099670080362
 20
30.83000327899922
 10
28.41099670080362
 20
30.85900327899922
 42
-0.4142135623730951
 10
28.43099670080361
 20
30.87900327899922
 10
28.63299170080362
 20
30.87900327899922
 42
-0.4142135623730951
 10
28.67099670080362
 20
30.84099827899922
 10
28.64899670080362
 20
30.84099827899922
 10
28.64899670080362
 20
30.80399827899923
 42
0.4142135623730951
 10
28.67399670080362
 20
30.77899827899922
 10
29.24049670080362
 20
30.77899827899925
 42
0.4142135623730886
 10
29.34049670080362
 20
30.87899827899925
 10
29.34049670080361
 20
31.34899827899925
 10
29.35049670080361
 20
31.35899827899925
 10
29.34049670080361
 20
31.36899827899925
 10
29.34049670080361
 20
31.59899827899925
 10
29.35049670080361
 20
31.60899827899925
 10
29.34049670080361
 20
31.61899827899925
 10
29.34049670080361
 20
32.45500327899922
 42
0.414213562373093
 10
29.28049670080362
 20
32.51500327899922
 10
28.62442167481873
 20
32.51500327899922
 42
0.6681640521692851
 10
28.61027896878033
 20
32.48086171381316
 10
28.66367508335162
 20
32.42746129157989
 42
-0.1989018846181274
 10
28.67099670080362
 20
32.40978433509733
 10
28.67099670080362
 20
32.35500827899922
 10
28.64899670080362
 20
32.35500827899922
 10
28.64899670080362
 20
32.29300827899922
 10
28.67099670080362
 20
32.29300827899922
 42
-0.4142135623730951
 10
28.63299170080362
 20
32.25500327899923
 10
28.43099670080361
 20
32.25500327899923
 42
-0.4142135623730951
 10
28.41099670080362
 20
32.27500327899922
 10
28.41099670080362
 20
32.30400327899923
 42
-0.4142135623730951
 10
28.43099670080361
 20
32.32400327899922
  0
LINE
  5
64F0
330
17
100
AcDbEntity
  8
R-SWTS-DET3
100
AcDbLine
 10
29.96549670080362
 20
28.64344489153407
 30
0.0
 11
32.34049670080362
 21
28.64344489153407
 31
0.0
  0
LINE
  5
64F1
330
17
100
AcDbEntity
  8
R-SWTS-DET3
100
AcDbLine
 10
29.96549670080362
 20
28.89344489153407
 30
0.0
 11
32.34049670080362
 21
28.89344489153407
 31
0.0
  0
LINE
  5
64F2
330
17
100
AcDbEntity
  8
R-SWTS-DET3
100
AcDbLine
 10
29.96549670080362
 20
29.39344489153407
 30
0.0
 11
32.34049670080362
 21
29.39344489153407
 31
0.0
  0
LINE
  5
64F3
330
17
100
AcDbEntity
  8
R-SWTS-DET3
100
AcDbLine
 10
29.96549670080362
 20
29.64344489153407
 30
0.0
 11
32.34049670080362
 21
29.64344489153407
 31
0.0
  0
LINE
  5
64F4
330
17
100
AcDbEntity
  8
R-SWTS-DET2
100
AcDbLine
 10
30.34049670080362
 20
28.12614117707923
 30
0.0
 11
32.34049670080362
 21
28.12614117707923
 31
0.0
  0
LINE
  5
64F5
330
17
100
AcDbEntity
  8
R-SWTS-DET2
100
AcDbLine
 10
30.34049670080362
 20
30.16074860598891
 30
0.0
 11
32.34049670080362
 21
30.16074860598891
 31
0.0
  0
LINE
  5
64F6
330
17
100
AcDbEntity
  8
R-SWTS-DET3
100
AcDbLine
 10
29.96549670080362
 20
28.64344489153407
 30
0.0
 11
29.96549670080362
 21
29.64344489153407
 31
0.0
  0
LINE
  5
64F7
330
17
100
AcDbEntity
  8
R-SWTS-DET3
100
AcDbLine
 10
30.21549670080362
 20
28.89344489153407
 30
0.0
 11
30.21549670080362
 21
29.39344489153407
 31
0.0
  0
LINE
  5
64F8
330
17
100
AcDbEntity
  8
R-SWTS-DET3
100
AcDbLine
 10
28.71549670080361
 20
32.06656166646437
 30
0.0
 11
26.34049670080361
 21
32.06656166646437
 31
0.0
  0
LINE
  5
64F9
330
17
100
AcDbEntity
  8
R-SWTS-DET3
100
AcDbLine
 10
28.71549670080361
 20
31.81656166646437
 30
0.0
 11
26.34049670080361
 21
31.81656166646437
 31
0.0
  0
LINE
  5
64FA
330
17
100
AcDbEntity
  8
R-SWTS-DET3
100
AcDbLine
 10
28.71549670080361
 20
31.31656166646437
 30
0.0
 11
26.34049670080361
 21
31.31656166646437
 31
0.0
  0
LINE
  5
64FB
330
17
100
AcDbEntity
  8
R-SWTS-DET3
100
AcDbLine
 10
28.71549670080361
 20
31.06656166646437
 30
0.0
 11
26.34049670080361
 21
31.06656166646437
 31
0.0
  0
LINE
  5
64FC
330
17
100
AcDbEntity
  8
R-SWTS-DET2
100
AcDbLine
 10
28.3404967008036
 20
32.58386538091921
 30
0.0
 11
26.3404967008036
 21
32.58386538091921
 31
0.0
  0
LINE
  5
64FD
330
17
100
AcDbEntity
  8
R-SWTS-DET2
100
AcDbLine
 10
28.3404967008036
 20
30.54925795200952
 30
0.0
 11
26.3404967008036
 21
30.54925795200952
 31
0.0
  0
LINE
  5
64FE
330
17
100
AcDbEntity
  8
R-SWTS-DET3
100
AcDbLine
 10
28.71549670080361
 20
32.06656166646437
 30
0.0
 11
28.71549670080361
 21
31.06656166646437
 31
0.0
  0
LINE
  5
64FF
330
17
100
AcDbEntity
  8
R-SWTS-DET3
100
AcDbLine
 10
28.4654967008036
 20
31.81656166646437
 30
0.0
 11
28.4654967008036
 21
31.31656166646437
 31
0.0
  0
LWPOLYLINE
  5
6500
330
17
100
AcDbEntity
  8
R-SWTS-DET2
100
AcDbPolyline
 90
       31
 70
     1
 43
0.0
 10
28.45449872896806
 20
32.44005026231816
 10
28.44962442837009
 20
32.41323373577923
 10
28.34238983068834
 20
32.44736385990036
 10
28.33751553180965
 20
32.50831051056043
 10
28.3404967008036
 20
32.58386538091921
 10
28.30948715818237
 20
32.57377483936089
 42
0.1257100272134179
 10
28.25774483058872
 20
32.34178343733884
 42
-0.2260837189018228
 10
28.20802697194461
 20
32.18819787690723
 10
28.09708635378426
 20
32.09264256724754
 42
0.6449762263124317
 10
28.10882769625792
 20
32.06670827522935
 10
28.23806463188731
 20
32.06828801225741
 42
0.1518691569180708
 10
28.28249978623656
 20
32.08464078885374
 10
28.34242556550504
 20
32.12314397714899
 42
-0.0293454671788447
 10
28.39430820869766
 20
32.14053886635189
 10
28.51610221853471
 20
32.15776915593541
 42
-0.6538117075652882
 10
28.52308895550007
 20
32.13752834503256
 10
28.35784003801015
 20
32.09343659781023
 42
0.8886355728344963
 10
28.35990146890953
 20
32.06828801225741
 10
28.49414708930219
 20
32.06828801225741
 42
0.0642046489364144
 10
28.68276334600948
 20
32.11072047416684
 42
0.6896355001773956
 10
28.68276334600948
 20
32.21332920455494
 42
0.0703560868358924
 10
28.49414708930219
 20
32.25456166646437
 10
28.39844427896856
 20
32.25456166646437
 10
28.39844427896856
 20
32.32790842444096
 10
28.45206157866907
 20
32.34984921925843
 10
28.45693587754776
 20
32.31084336134495
 10
28.49349312687467
 20
32.34497348753696
 10
28.51542747612696
 20
32.31328122720568
 10
28.5690447741082
 20
32.37422787993663
 10
28.50324172635133
 20
32.43029879887524
 10
28.49349312687467
 20
32.40592013819703
  0
LWPOLYLINE
  5
6501
330
17
100
AcDbEntity
  8
R-SWTS-DET2
100
AcDbPolyline
 90
       31
 70
     1
 43
0.0
 10
28.45449872896806
 20
30.69307307061058
 10
28.44962442837009
 20
30.71988959714951
 10
28.34238983068834
 20
30.68575947302838
 10
28.33751553180965
 20
30.62481282236831
 10
28.3404967008036
 20
30.54925795200952
 10
28.30948715818237
 20
30.55934849356785
 42
-0.1257100272134179
 10
28.25774483058872
 20
30.7913398955899
 42
0.2260837189018228
 10
28.20802697194461
 20
30.94492545602151
 10
28.09708635378426
 20
31.04048076568119
 42
-0.6449762263124317
 10
28.10882769625792
 20
31.06641505769938
 10
28.23806463188731
 20
31.06483532067133
 42
-0.1518691569180708
 10
28.28249978623656
 20
31.048482544075
 10
28.34242556550504
 20
31.00997935577975
 42
0.0293454671788447
 10
28.39430820869766
 20
30.99258446657685
 10
28.51610221853471
 20
30.97535417699332
 42
0.6538117075652882
 10
28.52308895550007
 20
30.99559498789618
 10
28.35784003801015
 20
31.03968673511851
 42
-0.8886355728344963
 10
28.35990146890953
 20
31.06483532067133
 10
28.49414708930219
 20
31.06483532067133
 42
-0.0642046489364144
 10
28.68276334600948
 20
31.0224028587619
 42
-0.6896355001773956
 10
28.68276334600948
 20
30.9197941283738
 42
-0.0703560868358924
 10
28.49414708930219
 20
30.87856166646437
 10
28.39844427896856
 20
30.87856166646437
 10
28.39844427896856
 20
30.80521490848778
 10
28.45206157866908
 20
30.78327411367031
 10
28.45693587754776
 20
30.82227997158379
 10
28.49349312687467
 20
30.78814984539178
 10
28.51542747612696
 20
30.81984210572306
 10
28.5690447741082
 20
30.75889545299211
 10
28.50324172635133
 20
30.7028245340535
 10
28.49349312687467
 20
30.7272031947317
  0
LWPOLYLINE
  5
6502
330
17
100
AcDbEntity
  8
R-SWTS-DET2
100
AcDbPolyline
 90
       31
 70
     1
 43
0.0
 10
30.22649467263917
 20
28.26995629568027
 10
30.23136897323714
 20
28.29677282221921
 10
30.33860357091889
 20
28.26264269809808
 10
30.34347786979758
 20
28.20169604743801
 10
30.34049670080362
 20
28.12614117707923
 10
30.37150624342486
 20
28.13623171863754
 42
0.1257100272134179
 10
30.42324857101851
 20
28.3682231206596
 42
-0.2260837189018228
 10
30.47296642966261
 20
28.5218086810912
 10
30.58390704782297
 20
28.6173639907509
 42
0.6449762263124317
 10
30.57216570534931
 20
28.64329828276908
 10
30.44292876971992
 20
28.64171854574103
 42
0.1518691569180708
 10
30.39849361537066
 20
28.6253657691447
 10
30.33856783610219
 20
28.58686258084945
 42
-0.0293454671788447
 10
30.28668519290957
 20
28.56946769164654
 10
30.16489118307252
 20
28.55223740206302
 42
-0.6538117075652882
 10
30.15790444610716
 20
28.57247821296588
 10
30.32315336359708
 20
28.61656996018821
 42
0.8886355728344963
 10
30.32109193269769
 20
28.64171854574103
 10
30.18684631230503
 20
28.64171854574103
 42
0.0642046489364144
 10
29.99823005559775
 20
28.5992860838316
 42
0.6896355001773956
 10
29.99823005559775
 20
28.4966773534435
 42
0.0703560868358924
 10
30.18684631230503
 20
28.45544489153407
 10
30.28254912263867
 20
28.45544489153407
 10
30.28254912263867
 20
28.38209813355748
 10
30.22893182293815
 20
28.36015733874001
 10
30.22405752405946
 20
28.39916319665349
 10
30.18750027473255
 20
28.36503307046147
 10
30.16556592548026
 20
28.39672533079275
 10
30.11194862749903
 20
28.33577867806181
 10
30.1777516752559
 20
28.2797077591232
 10
30.18750027473255
 20
28.3040864198014
  0
LWPOLYLINE
  5
6503
330
17
100
AcDbEntity
  8
R-SWTS-DET2
100
AcDbPolyline
 90
       31
 70
     1
 43
0.0
 10
30.22649467263917
 20
30.01693348738786
 10
30.23136897323714
 20
29.99011696084893
 10
30.33860357091889
 20
30.02424708497006
 10
30.34347786979758
 20
30.08519373563013
 10
30.34049670080362
 20
30.16074860598891
 10
30.37150624342486
 20
30.15065806443059
 42
-0.1257100272134179
 10
30.42324857101851
 20
29.91866666240854
 42
0.2260837189018228
 10
30.47296642966261
 20
29.76508110197693
 10
30.58390704782297
 20
29.66952579231724
 42
-0.6449762263124317
 10
30.5721657053493
 20
29.64359150029905
 10
30.44292876971992
 20
29.64517123732711
 42
-0.1518691569180708
 10
30.39849361537066
 20
29.66152401392344
 10
30.33856783610219
 20
29.70002720221869
 42
0.0293454671788447
 10
30.28668519290957
 20
29.71742209142158
 10
30.16489118307252
 20
29.73465238100511
 42
0.6538117075652882
 10
30.15790444610716
 20
29.71441157010226
 10
30.32315336359708
 20
29.67031982287993
 42
-0.8886355728344963
 10
30.32109193269769
 20
29.64517123732711
 10
30.18684631230503
 20
29.64517123732711
 42
-0.0642046489364144
 10
29.99823005559775
 20
29.68760369923653
 42
-0.6896355001773956
 10
29.99823005559774
 20
29.79021242962464
 42
-0.0703560868358924
 10
30.18684631230503
 20
29.83144489153407
 10
30.28254912263867
 20
29.83144489153407
 10
30.28254912263867
 20
29.90479164951065
 10
30.22893182293815
 20
29.92673244432813
 10
30.22405752405946
 20
29.88772658641465
 10
30.18750027473255
 20
29.92185671260666
 10
30.16556592548026
 20
29.89016445227538
 10
30.11194862749903
 20
29.95111110500633
 10
30.1777516752559
 20
30.00718202394493
 10
30.18750027473255
 20
29.98280336326673
  0
LINE
  5
6504
330
17
100
AcDbEntity
  8
R-ANNO-DIMS
  6
Continuous
100
AcDbLine
 10
28.34049670080361
 20
27.75400327899922
 30
0.0
 11
28.34049670080361
 21
26.19900327899922
 31
0.0
  0
LINE
  5
6505
330
17
100
AcDbEntity
  8
R-ANNO-DIMS
  6
Continuous
100
AcDbLine
 10
30.34049670080361
 20
27.75400327899922
 30
0.0
 11
30.34049670080361
 21
26.19900327899922
 31
0.0
  0
LINE
  5
6506
330
17
100
AcDbEntity
  8
R-ANNO-DIMS
  6
Continuous
100
AcDbLine
 10
28.59049670080361
 20
26.37900327899922
 30
0.0
 11
30.09049670080361
 21
26.37900327899922
 31
0.0
  0
SOLID
  5
6507
330
17
100
AcDbEntity
  8
R-ANNO-DIMS
  6
Continuous
100
AcDbTrace
 10
28.59049670080361
 20
26.42066994566588
 30
0.0
 11
28.59049670080361
 21
26.33733661233255
 31
0.0
 12
28.34049670080361
 22
26.37900327899922
 32
0.0
 13
28.34049670080361
 23
26.37900327899922
 33
0.0
  0
SOLID
  5
6508
330
17
100
AcDbEntity
  8
R-ANNO-DIMS
  6
Continuous
100
AcDbTrace
 10
30.09049670080361
 20
26.42066994566588
 30
0.0
 11
30.09049670080361
 21
26.33733661233255
 31
0.0
 12
30.34049670080361
 22
26.37900327899922
 32
0.0
 13
30.34049670080361
 23
26.37900327899922
 33
0.0
  0
MTEXT
  5
6509
330
17
100
AcDbEntity
  8
R-ANNO-DIMS
  6
Continuous
100
AcDbMText
 10
29.34049670080361
 20
26.60400327899921
 30
0.0
 40
0.25
 41
0.0
 71
     5
 72
     1
  1
\A1;2"
 73
     1
 44
1.0
1001
ACAD
1000
MTEXTBEGIN
1070
    73
1070
     1
1070
    44
1040
1.0
1070
    74
1070
     0
1000
MTEXTEND
  0
LINE
  5
650A
330
17
100
AcDbEntity
  8
R-ANNO-DIMS
  6
Continuous
100
AcDbLine
 10
30.34049670080361
 20
27.75400327899922
 30
0.0
 11
30.34049670080361
 21
26.19900327899922
 31
0.0
  0
LINE
  5
650B
330
17
100
AcDbEntity
  8
R-ANNO-DIMS
  6
Continuous
100
AcDbLine
 10
30.59049670080361
 20
26.37900327899922
 30
0.0
 11
32.09050670080362
 21
26.37900327899922
 31
0.0
  0
SOLID
  5
650C
330
17
100
AcDbEntity
  8
R-ANNO-DIMS
  6
Continuous
100
AcDbTrace
 10
30.59049670080361
 20
26.42066994566588
 30
0.0
 11
30.59049670080361
 21
26.33733661233255
 31
0.0
 12
30.34049670080361
 22
26.37900327899922
 32
0.0
 13
30.34049670080361
 23
26.37900327899922
 33
0.0
  0
SOLID
  5
650D
330
17
100
AcDbEntity
  8
R-ANNO-DIMS
  6
Continuous
100
AcDbTrace
 10
32.09050670080362
 20
26.42066994566588
 30
0.0
 11
32.09050670080362
 21
26.33733661233255
 31
0.0
 12
32.34050670080362
 22
26.37900327899922
 32
0.0
 13
32.34050670080362
 23
26.37900327899922
 33
0.0
  0
MTEXT
  5
650E
330
17
100
AcDbEntity
  8
R-ANNO-DIMS
  6
Continuous
100
AcDbMText
 10
31.34050170080362
 20
26.60400327899921
 30
0.0
 40
0.25
 41
0.0
 71
     5
 72
     1
  1
\A1;DLO
 73
     1
 44
1.0
1001
ACAD
1000
MTEXTBEGIN
1070
    73
1070
     1
1070
    44
1040
1.0
1070
    74
1070
     0
1000
MTEXTEND
  0
LINE
  5
650F
330
17
100
AcDbEntity
  8
R-ANNO-DIMS
  6
Continuous
100
AcDbLine
 10
28.34049670080361
 20
27.37900327899922
 30
0.0
 11
28.34049670080361
 21
26.19900327899922
 31
0.0
  0
LINE
  5
6510
330
17
100
AcDbEntity
  8
R-ANNO-DIMS
  6
Continuous
100
AcDbLine
 10
28.09049670080361
 20
26.37900327899922
 30
0.0
 11
26.59048670080361
 21
26.37900327899922
 31
0.0
  0
SOLID
  5
6511
330
17
100
AcDbEntity
  8
R-ANNO-DIMS
  6
Continuous
100
AcDbTrace
 10
28.09049670080361
 20
26.42066994566588
 30
0.0
 11
28.09049670080361
 21
26.33733661233255
 31
0.0
 12
28.34049670080361
 22
26.37900327899922
 32
0.0
 13
28.34049670080361
 23
26.37900327899922
 33
0.0
  0
SOLID
  5
6512
330
17
100
AcDbEntity
  8
R-ANNO-DIMS
  6
Continuous
100
AcDbTrace
 10
26.59048670080361
 20
26.42066994566588
 30
0.0
 11
26.59048670080361
 21
26.33733661233255
 31
0.0
 12
26.34048670080361
 22
26.37900327899922
 32
0.0
 13
26.34048670080361
 23
26.37900327899922
 33
0.0
  0
MTEXT
  5
6513
330
17
100
AcDbEntity
  8
R-ANNO-DIMS
  6
Continuous
100
AcDbMText
 10
27.34049170080361
 20
26.60400327899921
 30
0.0
 40
0.25
 41
0.0
 71
     5
 72
     1
  1
\A1;DLO
 73
     1
 44
1.0
1001
ACAD
1000
MTEXTBEGIN
1070
    73
1070
     1
1070
    44
1040
1.0
1070
    74
1070
     0
1000
MTEXTEND
  0
LWPOLYLINE
  5
6514
330
17
100
AcDbEntity
  8
R-SWTS-DET1
100
AcDbPolyline
 90
        6
 70
     0
 43
0.0
 10
26.3404867008036
 20
19.23525816013366
 10
26.3404867008036
 20
16.71026816013367
 10
26.1405067008036
 20
16.66024816013366
 10
26.5404867008036
 20
16.56026816013366
 10
26.3404867008036
 20
16.51026816013366
 10
26.3404867008036
 20
13.98525816013366
  0
LWPOLYLINE
  5
6515
330
17
100
AcDbEntity
  8
R-SWTS-DET1
100
AcDbPolyline
 90
        6
 70
     0
 43
0.0
 10
32.34050670080362
 20
13.98525816013366
 10
32.34049670080362
 20
16.49447133303016
 10
32.54047670080363
 20
16.54449133303017
 10
32.14049670080362
 20
16.64447133303017
 10
32.34049670080362
 20
16.69447133303017
 10
32.34050670080362
 20
19.23525816013366
  0
LINE
  5
6516
330
17
100
AcDbEntity
  8
R-SWTS-DET1
100
AcDbLine
 10
32.34050575169598
 20
14.23527334496794
 30
0.0
 11
26.34048670080361
 21
14.23525816013366
 31
0.0
  0
LINE
  5
6517
330
17
100
AcDbEntity
  8
R-SWTS-DET1
100
AcDbLine
 10
30.34049670080361
 20
14.36025816013366
 30
0.0
 11
32.34050670080362
 21
14.36025816013366
 31
0.0
  0
LINE
  5
6518
330
17
100
AcDbEntity
  8
R-SWTS-DET1
100
AcDbLine
 10
28.34049670080361
 20
14.36025816013366
 30
0.0
 11
26.34048670080361
 21
14.36025816013366
 31
0.0
  0
LINE
  5
6519
330
17
100
AcDbEntity
  8
R-SWTS-DET1
100
AcDbLine
 10
32.34050576293791
 20
18.98524315514895
 30
0.0
 11
26.3404867008036
 21
18.98525816013366
 31
0.0
  0
LINE
  5
651A
330
17
100
AcDbEntity
  8
R-SWTS-DET1
100
AcDbLine
 10
30.3404967008036
 20
18.86025816013366
 30
0.0
 11
32.34050670080361
 21
18.86025816013366
 31
0.0
  0
LINE
  5
651B
330
17
100
AcDbEntity
  8
R-SWTS-DET1
100
AcDbLine
 10
28.34049670080361
 20
18.86025816013366
 30
0.0
 11
26.3404867008036
 21
18.86025816013366
 31
0.0
  0
TEXT
  5
651C
330
17
100
AcDbEntity
  8
PART_NUMBERS
100
AcDbText
 10
26.51331875769421
 20
19.48719705780445
 30
0.0
 40
0.25
  1
451VG052 SHALLOW POCKET MULLION
100
AcDbText
  0
TEXT
  5
651D
330
17
100
AcDbEntity
  8
PART_NUMBERS
100
AcDbText
 10
26.51331875769421
 20
19.98719705780445
 30
0.0
 40
0.25
  1
451CG028 DEEP POCKET FILLER
100
AcDbText
  0
LWPOLYLINE
  5
651E
330
17
100
AcDbEntity
  8
R-SWTS-DET1
100
AcDbPolyline
 90
      133
 70
     1
 43
0.0
 10
30.34049670080361
 20
18.71561002352561
 10
30.23799670080361
 20
18.67957972049531
 10
30.23799670080361
 20
18.70857972049531
 10
30.16629670080361
 20
18.70857972049531
 42
0.1989123673796512
 10
30.14861903127395
 20
18.70125739002497
 10
30.08199670080361
 20
18.63457972049531
 10
30.08199670080361
 20
18.59262972049531
 42
0.3541185725306985
 10
30.09783846698726
 20
18.57306676848063
 10
30.19999670080361
 20
18.5506297204953
 10
30.23799670080361
 20
18.5506297204953
 10
30.23799670080361
 20
18.5796297204953
 10
30.24999670080361
 20
18.5796297204953
 42
-0.4142135623730951
 10
30.26999670080361
 20
18.5596297204953
 10
30.26999670080361
 20
18.5306297204953
 42
-0.4142135623730951
 10
30.24999670080361
 20
18.5106297204953
 10
30.04800170080361
 20
18.5106297204953
 42
-0.4142135623730951
 10
30.00999670080361
 20
18.5486347204953
 10
30.03199670080361
 20
18.5486347204953
 10
30.03199670080361
 20
18.6106347204953
 10
30.00999670080361
 20
18.6106347204953
 10
30.00999670080361
 20
18.66541077659341
 42
-0.1989018846181274
 10
30.01731831825561
 20
18.68308773307598
 10
30.0707144328269
 20
18.73648815530925
 42
0.6681640521692886
 10
30.0565717267885
 20
18.77062972049531
 10
29.90049670080362
 20
18.77062972049531
 42
0.4142135623730928
 10
29.84049670080363
 20
18.71062972049531
 10
29.84049670080361
 20
17.89445896291954
 10
29.83049670080362
 20
17.88445896291954
 10
29.84049670080361
 20
17.87445896291954
 10
29.84049670080361
 20
17.64445896291954
 10
29.83049670080362
 20
17.63445896291954
 10
29.84049670080361
 20
17.62445896291954
 10
29.84049670080361
 20
17.13462472049531
 42
0.4142135623730951
 10
29.94049670080361
 20
17.03462472049531
 10
30.00699670080361
 20
17.03462472049531
 42
0.4142135623730951
 10
30.03199670080361
 20
17.05962472049531
 10
30.03199670080361
 20
17.09662472049531
 10
30.00999670080361
 20
17.09662472049531
 42
-0.4142135623730951
 10
30.04800170080361
 20
17.13462972049531
 10
30.24999670080361
 20
17.13462972049531
 42
-0.4142135623730951
 10
30.26999670080361
 20
17.11462972049531
 10
30.26999670080361
 20
17.08562972049531
 42
-0.4142135623730951
 10
30.24999670080361
 20
17.06562972049531
 10
30.23799670080361
 20
17.06562972049531
 10
30.23799670080361
 20
17.09462972049531
 10
30.19999670080361
 20
17.09462972049531
 10
30.09783846698726
 20
17.07219267250998
 42
0.3541185725306792
 10
30.08199670080361
 20
17.05262972049531
 10
30.08199670080361
 20
17.0106797204953
 10
30.14861903127395
 20
16.94400205096564
 42
0.1989123673796507
 10
30.16629670080361
 20
16.93667972049531
 10
30.23799670080361
 20
16.93667972049531
 10
30.23799670080361
 20
16.9656797204953
 10
30.34049670080361
 20
16.929649417465
 10
30.34049670080361
 20
16.79462972049531
 10
30.34049670080361
 20
14.36062972049531
 10
28.34049670080361
 20
14.36062972049531
 10
28.34049670080361
 20
14.81463063285874
 10
28.4204967008036
 20
14.81463063285874
 10
28.42049670080361
 20
14.92263063285874
 42
-0.4142135623730951
 10
28.4824967008036
 20
14.98463063285874
 10
28.5004967008036
 20
14.98463063285874
 10
28.50049670080361
 20
14.79663063285874
 42
-0.4142135623730951
 10
28.43849670080361
 20
14.73463063285873
 10
28.4204967008036
 20
14.73463063285874
 10
28.4204967008036
 20
14.51062972049531
 42
0.4142135623730929
 10
28.4804967008036
 20
14.45062972049531
 10
30.20049670080361
 20
14.45062972049531
 42
0.4142135623730951
 10
30.26049670080361
 20
14.51062972049531
 10
30.26049670080361
 20
15.2091297204953
 42
0.4142135623730951
 10
30.25049670080361
 20
15.2191297204953
 10
30.25049670080361
 20
15.56312972049529
 42
0.4142135623730951
 10
30.26049670080361
 20
15.57312972049529
 10
30.26049670080361
 20
16.14012972049532
 42
0.4142135623730951
 10
30.25049670080361
 20
16.15012972049531
 10
30.25049670080361
 20
16.4941297204953
 42
0.4142135623730951
 10
30.26049670080361
 20
16.5041297204953
 10
30.26049670080361
 20
16.7866797204953
 42
0.4142135623730951
 10
30.19049670080361
 20
16.85667972049531
 10
30.17044127155502
 20
16.85667972049531
 42
-0.1990202627215682
 10
30.09616424285888
 20
16.88746433793837
 10
30.03491847004238
 20
16.94876098383948
 42
0.1990202627215676
 10
30.02077046457645
 20
16.95462472049531
 10
29.93049670080361
 20
16.95462472049531
 42
-0.4142135623730951
 10
29.76049670080362
 20
17.12462472049531
 10
29.76049670080361
 20
17.40345896291954
 42
0.4142135623731081
 10
29.74049670080361
 20
17.42345896291953
 10
29.5354967008036
 20
17.42345896291953
 42
-0.4142135623731173
 10
29.4654967008036
 20
17.49345896291954
 10
29.46549670080362
 20
17.63445896291953
 10
29.53099670080361
 20
17.63445896291952
 42
-0.9999999999999998
 10
29.53099670080361
 20
17.60345896291953
 10
29.53049670080361
 20
17.60345896291953
 42
0.4142135623730951
 10
29.51549670080361
 20
17.58845896291953
 10
29.51549670080361
 20
17.50845896291953
 42
0.4142135623730976
 10
29.53049670080361
 20
17.49345896291953
 10
29.74549670080361
 20
17.49345896291953
 42
0.4142135623730938
 10
29.76049670080361
 20
17.50845896291953
 10
29.76049670080361
 20
17.58846306155552
 42
0.4190234982698207
 10
29.74525079916427
 20
17.60346104583288
 42
-1.00823086916291
 10
29.74499670080361
 20
17.63445896291953
 10
29.76049670080361
 20
17.63445896291954
 10
29.76049670080361
 20
17.88445896291954
 10
29.74499670080361
 20
17.88445896291954
 42
-0.9999999999999998
 10
29.74499670080361
 20
17.91545896291953
 10
29.74549670080361
 20
17.91545896291953
 42
0.4142135623730951
 10
29.76049670080361
 20
17.93045896291953
 10
29.76049670080361
 20
18.01045896291954
 42
0.4142135623730938
 10
29.74549670080361
 20
18.02545896291954
 10
29.53049670080361
 20
18.02545896291954
 42
0.4142135623730951
 10
29.51549670080361
 20
18.01045896291954
 10
29.51549670080361
 20
17.93045486428355
 42
0.4190234982697588
 10
29.53074260244296
 20
17.9154568800062
 42
-1.008230869162782
 10
29.53099670080361
 20
17.88445896291955
 10
29.46549670080362
 20
17.88445896291955
 10
29.4654967008036
 20
18.02545896291954
 42
-0.4142135623731173
 10
29.5354967008036
 20
18.09545896291955
 10
29.74049670080362
 20
18.09545896291954
 42
0.4142135623730887
 10
29.76049670080362
 20
18.11545896291955
 10
29.76049670080362
 20
18.7106297204953
 42
0.4142135623730951
 10
29.70049670080362
 20
18.77062972049531
 10
28.4804967008036
 20
18.77062972049531
 42
0.4142135623730971
 10
28.4204967008036
 20
18.71062972049531
 10
28.4204967008036
 20
18.48663063285872
 10
28.43849670080361
 20
18.48663063285872
 42
-0.4142135623730951
 10
28.5004967008036
 20
18.42463063285872
 10
28.50049670080361
 20
18.23663063285874
 10
28.4824967008036
 20
18.23663063285874
 42
-0.4142135623730951
 10
28.42049670080361
 20
18.29863063285873
 10
28.42049670080361
 20
18.40663063285874
 10
28.34049670080361
 20
18.40663063285874
 10
28.34049670080361
 20
18.86062972049531
 10
30.34049670080361
 20
18.86062972049531
  0
LWPOLYLINE
  5
651F
330
17
100
AcDbEntity
  8
R-SWTS-DET1
100
AcDbPolyline
 90
       98
 70
     1
 43
0.0
 10
28.58315493461998
 20
15.86027111214834
 42
-0.3541185725306761
 10
28.59899670080362
 20
15.84070816013366
 10
28.59899670080362
 20
15.79875816013366
 10
28.53237437033329
 20
15.732080490604
 42
-0.1989123673796582
 10
28.51469670080362
 20
15.72475816013366
 10
28.44299670080362
 20
15.72475816013366
 10
28.44299670080362
 20
15.75375816013366
 10
28.34049670080362
 20
15.71772785710336
 10
28.34049670080362
 20
14.81525816013366
 10
28.42049670080362
 20
14.81525816013366
 10
28.42049670080362
 20
14.98525816013366
 10
28.50649670080362
 20
14.98525816013366
 10
28.50649670080362
 20
14.92325816013366
 10
28.72349670080362
 20
15.00225816013366
 42
1.003724381894511
 10
28.69949670080362
 20
15.06775816013365
 10
28.58699834474734
 20
15.02675875925981
 42
-0.5183857430387555
 10
28.56015060537459
 20
15.04540395313066
 42
0.4120800626174657
 10
28.54015113677159
 20
15.06525816013366
 10
28.44049670080362
 20
15.06525816013366
 42
-0.4142135623730951
 10
28.42049670080362
 20
15.08525816013366
 10
28.42049670080362
 20
15.20925816013366
 42
-0.4142135623730951
 10
28.43049670080362
 20
15.21925816013365
 10
28.43049670080362
 20
15.38125816013366
 10
28.42049670080362
 20
15.39125816013365
 10
28.43049670080362
 20
15.40125816013366
 10
28.43049670080362
 20
15.56325816013365
 42
-0.4142135623730951
 10
28.42049670080362
 20
15.57325816013366
 10
28.42049670080362
 20
15.57475816013366
 42
-0.4142135623730951
 10
28.49049670080362
 20
15.64475816013366
 10
28.52055213005221
 20
15.64475816013366
 42
0.1990202627215674
 10
28.59482915874835
 20
15.67554277757673
 10
28.65612988591765
 20
15.73689442347783
 42
-0.1990202627215459
 10
28.67027789138358
 20
15.74275816013365
 10
29.25049670080362
 20
15.74275816013366
 42
0.4142135623730888
 10
29.42049670080362
 20
15.91275816013366
 10
29.42049670080362
 20
17.30775816013365
 42
0.4142135623730889
 10
29.25049670080362
 20
17.47775816013365
 10
28.67027789138358
 20
17.47775816013366
 42
-0.1990202627215466
 10
28.65612988591765
 20
17.48362189678949
 10
28.59482915874835
 20
17.54497354269059
 42
0.1990202627215655
 10
28.52055213005221
 20
17.57575816013365
 10
28.49049670080362
 20
17.57575816013365
 42
-0.4142135623730951
 10
28.42049670080362
 20
17.64575816013365
 10
28.42049670080362
 20
17.64725816013366
 42
-0.4142135623730951
 10
28.43049670080362
 20
17.65725816013366
 10
28.43049670080362
 20
17.81925816013366
 10
28.42049670080362
 20
17.82925816013366
 10
28.43049670080362
 20
17.83925816013366
 10
28.43049670080362
 20
18.00125816013366
 42
-0.4142135623730951
 10
28.42049670080362
 20
18.01125816013366
 10
28.42049670080362
 20
18.13525816013367
 42
-0.4142135623730951
 10
28.44049670080362
 20
18.15525816013366
 10
28.54015113677163
 20
18.15525816013366
 42
0.4120800626174634
 10
28.56015060537459
 20
18.17511236713666
 42
-0.5183857430387571
 10
28.58699834474734
 20
18.19375756100751
 10
28.69949670080362
 20
18.15275816013366
 42
1.003724381894516
 10
28.72349670080362
 20
18.21825816013366
 10
28.50649670080362
 20
18.29725816013366
 10
28.50649670080362
 20
18.23525816013366
 10
28.42049670080362
 20
18.23525816013366
 10
28.42049670080362
 20
18.40525816013366
 10
28.34049670080362
 20
18.40525816013366
 10
28.34049670080362
 20
17.50278846316396
 10
28.44299670080362
 20
17.46675816013366
 10
28.44299670080362
 20
17.49575816013366
 10
28.51469670080362
 20
17.49575816013366
 42
-0.1989123673796506
 10
28.53237437033329
 20
17.48843582966332
 10
28.59899670080362
 20
17.42175816013366
 10
28.59899670080362
 20
17.37980816013366
 42
-0.3541185725306762
 10
28.58315493461998
 20
17.36024520811898
 10
28.48099670080362
 20
17.33780816013366
 10
28.44299670080362
 20
17.33780816013366
 10
28.44299670080362
 20
17.36680816013366
 10
28.43099670080362
 20
17.36680816013366
 42
0.4142135623730951
 10
28.41099670080362
 20
17.34680816013366
 10
28.41099670080362
 20
17.31780816013366
 42
0.4142135623730951
 10
28.43099670080362
 20
17.29780816013366
 10
28.63299170080363
 20
17.29780816013366
 42
0.4142135623730951
 10
28.67099670080362
 20
17.33581316013365
 10
28.64899670080362
 20
17.33581316013365
 10
28.64899670080362
 20
17.37775816013366
 42
-0.4142135623731212
 10
28.66899670080363
 20
17.39775816013366
 10
29.24049670080362
 20
17.39775816013365
 42
-0.4142135623730898
 10
29.34049670080362
 20
17.29775816013366
 10
29.34049670080362
 20
15.92275816013366
 42
-0.4142135623730898
 10
29.24049670080362
 20
15.82275816013367
 10
28.66899670080363
 20
15.82275816013365
 42
-0.4142135623730951
 10
28.64899670080362
 20
15.84275816013365
 10
28.64899670080362
 20
15.88470316013366
 10
28.67099670080362
 20
15.88470316013366
 42
0.4142135623730951
 10
28.63299170080363
 20
15.92270816013366
 10
28.43099670080362
 20
15.92270816013366
 42
0.4142135623730951
 10
28.41099670080362
 20
15.90270816013366
 10
28.41099670080362
 20
15.87370816013366
 42
0.4142135623730951
 10
28.43099670080362
 20
15.85370816013366
 10
28.44299670080362
 20
15.85370816013366
 10
28.44299670080362
 20
15.88270816013366
 10
28.48099670080362
 20
15.88270816013366
  0
LINE
  5
6520
330
17
100
AcDbEntity
  8
R-SWTS-DET3
100
AcDbLine
 10
28.71549670080362
 20
17.1093665475988
 30
0.0
 11
26.34049670080362
 21
17.1093665475988
 31
0.0
  0
LINE
  5
6521
330
17
100
AcDbEntity
  8
R-SWTS-DET3
100
AcDbLine
 10
28.71549670080362
 20
16.8593665475988
 30
0.0
 11
26.34049670080362
 21
16.8593665475988
 31
0.0
  0
LINE
  5
6522
330
17
100
AcDbEntity
  8
R-SWTS-DET3
100
AcDbLine
 10
28.71549670080362
 20
16.3593665475988
 30
0.0
 11
26.34049670080362
 21
16.3593665475988
 31
0.0
  0
LINE
  5
6523
330
17
100
AcDbEntity
  8
R-SWTS-DET3
100
AcDbLine
 10
28.71549670080362
 20
16.1093665475988
 30
0.0
 11
26.34049670080362
 21
16.1093665475988
 31
0.0
  0
LINE
  5
6524
330
17
100
AcDbEntity
  8
R-SWTS-DET2
100
AcDbLine
 10
28.34049670080361
 20
17.62667026205364
 30
0.0
 11
26.34049670080361
 21
17.62667026205364
 31
0.0
  0
LINE
  5
6525
330
17
100
AcDbEntity
  8
R-SWTS-DET2
100
AcDbLine
 10
28.34049670080361
 20
15.59206283314396
 30
0.0
 11
26.34049670080361
 21
15.59206283314395
 31
0.0
  0
LINE
  5
6526
330
17
100
AcDbEntity
  8
R-SWTS-DET3
100
AcDbLine
 10
28.71549670080362
 20
17.1093665475988
 30
0.0
 11
28.71549670080362
 21
16.1093665475988
 31
0.0
  0
LINE
  5
6527
330
17
100
AcDbEntity
  8
R-SWTS-DET3
100
AcDbLine
 10
28.46549670080362
 20
16.8593665475988
 30
0.0
 11
28.46549670080362
 21
16.3593665475988
 31
0.0
  0
LINE
  5
6528
330
17
100
AcDbEntity
  8
R-SWTS-DET3
100
AcDbLine
 10
29.96549670080362
 20
18.32218810796045
 30
0.0
 11
32.34049670080362
 21
18.32218810796045
 31
0.0
  0
LINE
  5
6529
330
17
100
AcDbEntity
  8
R-SWTS-DET3
100
AcDbLine
 10
29.96549670080362
 20
18.07218810796045
 30
0.0
 11
32.34049670080362
 21
18.07218810796045
 31
0.0
  0
LINE
  5
652A
330
17
100
AcDbEntity
  8
R-SWTS-DET3
100
AcDbLine
 10
29.96549670080362
 20
17.57218810796045
 30
0.0
 11
32.34049670080362
 21
17.57218810796045
 31
0.0
  0
LINE
  5
652B
330
17
100
AcDbEntity
  8
R-SWTS-DET3
100
AcDbLine
 10
29.96549670080362
 20
17.32218810796045
 30
0.0
 11
32.34049670080362
 21
17.32218810796045
 31
0.0
  0
LINE
  5
652C
330
17
100
AcDbEntity
  8
R-SWTS-DET2
100
AcDbLine
 10
30.34049670080362
 20
18.83949182241529
 30
0.0
 11
32.34049670080362
 21
18.83949182241529
 31
0.0
  0
LINE
  5
652D
330
17
100
AcDbEntity
  8
R-SWTS-DET2
100
AcDbLine
 10
30.34049670080362
 20
16.80488439350561
 30
0.0
 11
32.34049670080362
 21
16.80488439350561
 31
0.0
  0
LINE
  5
652E
330
17
100
AcDbEntity
  8
R-SWTS-DET3
100
AcDbLine
 10
29.96549670080362
 20
18.32218810796045
 30
0.0
 11
29.96549670080362
 21
17.32218810796045
 31
0.0
  0
LINE
  5
652F
330
17
100
AcDbEntity
  8
R-SWTS-DET3
100
AcDbLine
 10
30.21549670080362
 20
18.07218810796045
 30
0.0
 11
30.21549670080362
 21
17.57218810796045
 31
0.0
  0
LWPOLYLINE
  5
6530
330
17
100
AcDbEntity
  8
R-SWTS-DET2
100
AcDbPolyline
 90
       31
 70
     1
 43
0.0
 10
30.22649467263917
 20
18.69567670381425
 10
30.23136897323714
 20
18.66886017727531
 10
30.33860357091889
 20
18.70299030139644
 10
30.34347786979758
 20
18.76393695205651
 10
30.34049670080362
 20
18.83949182241529
 10
30.37150624342486
 20
18.82940128085698
 42
-0.1257100272134179
 10
30.42324857101851
 20
18.59740987883492
 42
0.2260837189018228
 10
30.47296642966261
 20
18.44382431840331
 10
30.58390704782297
 20
18.34826900874362
 42
-0.6449762263124317
 10
30.57216570534931
 20
18.32233471672544
 10
30.44292876971992
 20
18.32391445375349
 42
-0.1518691569180708
 10
30.39849361537066
 20
18.34026723034982
 10
30.33856783610219
 20
18.37877041864507
 42
0.0293454671788447
 10
30.28668519290957
 20
18.39616530784797
 10
30.16489118307252
 20
18.4133955974315
 42
0.6538117075652882
 10
30.15790444610716
 20
18.39315478652864
 10
30.32315336359708
 20
18.34906303930631
 42
-0.8886355728344963
 10
30.32109193269769
 20
18.32391445375349
 10
30.18684631230503
 20
18.32391445375349
 42
-0.0642046489364144
 10
29.99823005559775
 20
18.36634691566291
 42
-0.6896355001773956
 10
29.99823005559775
 20
18.46895564605102
 42
-0.0703560868358924
 10
30.18684631230503
 20
18.51018810796045
 10
30.28254912263867
 20
18.51018810796045
 10
30.28254912263867
 20
18.58353486593704
 10
30.22893182293815
 20
18.60547566075451
 10
30.22405752405946
 20
18.56646980284103
 10
30.18750027473255
 20
18.60059992903304
 10
30.16556592548026
 20
18.56890766870176
 10
30.11194862749903
 20
18.62985432143271
 10
30.1777516752559
 20
18.68592524037132
 10
30.18750027473255
 20
18.66154657969311
  0
LWPOLYLINE
  5
6531
330
17
100
AcDbEntity
  8
R-SWTS-DET2
100
AcDbPolyline
 90
       31
 70
     1
 43
0.0
 10
30.22649467263917
 20
16.94869951210665
 10
30.23136897323714
 20
16.97551603864559
 10
30.33860357091889
 20
16.94138591452446
 10
30.34347786979758
 20
16.88043926386439
 10
30.34049670080362
 20
16.80488439350561
 10
30.37150624342486
 20
16.81497493506393
 42
0.1257100272134179
 10
30.42324857101851
 20
17.04696633708598
 42
-0.2260837189018228
 10
30.47296642966261
 20
17.20055189751759
 10
30.58390704782297
 20
17.29610720717728
 42
0.6449762263124317
 10
30.57216570534931
 20
17.32204149919546
 10
30.44292876971992
 20
17.32046176216741
 42
0.1518691569180708
 10
30.39849361537066
 20
17.30410898557108
 10
30.33856783610219
 20
17.26560579727583
 42
-0.0293454671788447
 10
30.28668519290957
 20
17.24821090807293
 10
30.16489118307252
 20
17.23098061848941
 42
-0.6538117075652882
 10
30.15790444610716
 20
17.25122142939226
 10
30.32315336359708
 20
17.29531317661459
 42
0.8886355728344963
 10
30.32109193269769
 20
17.32046176216741
 10
30.18684631230503
 20
17.32046176216741
 42
0.0642046489364144
 10
29.99823005559775
 20
17.27802930025799
 42
0.6896355001773956
 10
29.99823005559775
 20
17.17542056986988
 42
0.0703560868358924
 10
30.18684631230503
 20
17.13418810796045
 10
30.28254912263867
 20
17.13418810796045
 10
30.28254912263867
 20
17.06084134998386
 10
30.22893182293815
 20
17.03890055516639
 10
30.22405752405946
 20
17.07790641307987
 10
30.18750027473255
 20
17.04377628688786
 10
30.16556592548026
 20
17.07546854721914
 10
30.11194862749903
 20
17.01452189448819
 10
30.1777516752559
 20
16.95845097554958
 10
30.18750027473255
 20
16.98282963622779
  0
LWPOLYLINE
  5
6532
330
17
100
AcDbEntity
  8
R-SWTS-DET2
100
AcDbPolyline
 90
       31
 70
     1
 43
0.0
 10
28.45449872896807
 20
17.48285514345259
 10
28.4496244283701
 20
17.45603861691366
 10
28.34238983068835
 20
17.49016874103479
 10
28.33751553180966
 20
17.55111539169486
 10
28.34049670080361
 20
17.62667026205364
 10
28.30948715818238
 20
17.61657972049532
 42
0.1257100272134179
 10
28.25774483058872
 20
17.38458831847327
 42
-0.2260837189018228
 10
28.20802697194462
 20
17.23100275804166
 10
28.09708635378427
 20
17.13544744838197
 42
0.6449762263124317
 10
28.10882769625793
 20
17.10951315636378
 10
28.23806463188732
 20
17.11109289339184
 42
0.1518691569180708
 10
28.28249978623658
 20
17.12744566998817
 10
28.34242556550505
 20
17.16594885828342
 42
-0.0293454671788447
 10
28.39430820869767
 20
17.18334374748632
 10
28.51610221853471
 20
17.20057403706984
 42
-0.6538117075652882
 10
28.52308895550008
 20
17.18033322616699
 10
28.35784003801016
 20
17.13624147894466
 42
0.8886355728344963
 10
28.35990146890955
 20
17.11109289339184
 10
28.4941470893022
 20
17.11109289339184
 42
0.0642046489364144
 10
28.68276334600949
 20
17.15352535530126
 42
0.6896355001773956
 10
28.68276334600949
 20
17.25613408568937
 42
0.0703560868358924
 10
28.4941470893022
 20
17.2973665475988
 10
28.39844427896857
 20
17.2973665475988
 10
28.39844427896857
 20
17.37071330557539
 10
28.45206157866908
 20
17.39265410039286
 10
28.45693587754777
 20
17.35364824247938
 10
28.49349312687468
 20
17.38777836867139
 10
28.51542747612697
 20
17.35608610834011
 10
28.56904477410821
 20
17.41703276107106
 10
28.50324172635134
 20
17.47310368000966
 10
28.49349312687468
 20
17.44872501933146
  0
LWPOLYLINE
  5
6533
330
17
100
AcDbEntity
  8
R-SWTS-DET2
100
AcDbPolyline
 90
       31
 70
     1
 43
0.0
 10
28.45449872896807
 20
15.735877951745
 10
28.4496244283701
 20
15.76269447828394
 10
28.34238983068835
 20
15.72856435416281
 10
28.33751553180966
 20
15.66761770350274
 10
28.34049670080361
 20
15.59206283314396
 10
28.30948715818238
 20
15.60215337470227
 42
-0.1257100272134179
 10
28.25774483058872
 20
15.83414477672433
 42
0.2260837189018228
 10
28.20802697194462
 20
15.98773033715594
 10
28.09708635378427
 20
16.08328564681563
 42
-0.6449762263124317
 10
28.10882769625793
 20
16.10921993883381
 10
28.23806463188732
 20
16.10764020180576
 42
-0.1518691569180708
 10
28.28249978623658
 20
16.09128742520943
 10
28.34242556550505
 20
16.05278423691418
 42
0.0293454671788447
 10
28.39430820869767
 20
16.03538934771128
 10
28.51610221853471
 20
16.01815905812775
 42
0.6538117075652882
 10
28.52308895550008
 20
16.03839986903061
 10
28.35784003801016
 20
16.08249161625294
 42
-0.8886355728344963
 10
28.35990146890955
 20
16.10764020180576
 10
28.4941470893022
 20
16.10764020180576
 42
-0.0642046489364144
 10
28.68276334600949
 20
16.06520773989633
 42
-0.6896355001773956
 10
28.68276334600949
 20
15.96259900950823
 42
-0.0703560868358924
 10
28.4941470893022
 20
15.9213665475988
 10
28.39844427896857
 20
15.9213665475988
 10
28.39844427896857
 20
15.84801978962221
 10
28.45206157866909
 20
15.82607899480474
 10
28.45693587754777
 20
15.86508485271822
 10
28.49349312687468
 20
15.83095472652621
 10
28.51542747612697
 20
15.86264698685748
 10
28.56904477410821
 20
15.80170033412654
 10
28.50324172635134
 20
15.74562941518793
 10
28.49349312687468
 20
15.77000807586613
  0
LINE
  5
6534
330
17
100
AcDbEntity
  8
R-ANNO-DIMS
  6
Continuous
100
AcDbLine
 10
28.34049670080361
 20
13.6082563354068
 30
0.0
 11
28.34049670080361
 21
12.42825633540681
 31
0.0
  0
LINE
  5
6535
330
17
100
AcDbEntity
  8
R-ANNO-DIMS
  6
Continuous
100
AcDbLine
 10
28.09049670080361
 20
12.60825633540681
 30
0.0
 11
26.59048670080361
 21
12.60825633540681
 31
0.0
  0
SOLID
  5
6536
330
17
100
AcDbEntity
  8
R-ANNO-DIMS
  6
Continuous
100
AcDbTrace
 10
28.09049670080361
 20
12.64992300207347
 30
0.0
 11
28.09049670080361
 21
12.56658966874014
 31
0.0
 12
28.34049670080361
 22
12.60825633540681
 32
0.0
 13
28.34049670080361
 23
12.60825633540681
 33
0.0
  0
SOLID
  5
6537
330
17
100
AcDbEntity
  8
R-ANNO-DIMS
  6
Continuous
100
AcDbTrace
 10
26.59048670080361
 20
12.64992300207347
 30
0.0
 11
26.59048670080361
 21
12.56658966874014
 31
0.0
 12
26.34048670080361
 22
12.60825633540681
 32
0.0
 13
26.34048670080361
 23
12.60825633540681
 33
0.0
  0
MTEXT
  5
6538
330
17
100
AcDbEntity
  8
R-ANNO-DIMS
  6
Continuous
100
AcDbMText
 10
27.34049170080361
 20
12.83325633540681
 30
0.0
 40
0.25
 41
0.0
 71
     5
 72
     1
  1
\A1;DLO
 73
     1
 44
1.0
1001
ACAD
1000
MTEXTBEGIN
1070
    73
1070
     1
1070
    44
1040
1.0
1070
    74
1070
     0
1000
MTEXTEND
  0
LINE
  5
6539
330
17
100
AcDbEntity
  8
R-ANNO-DIMS
  6
Continuous
100
AcDbLine
 10
28.34049670080361
 20
13.98325633540681
 30
0.0
 11
28.34049670080361
 21
12.42825633540681
 31
0.0
  0
LINE
  5
653A
330
17
100
AcDbEntity
  8
R-ANNO-DIMS
  6
Continuous
100
AcDbLine
 10
30.34049670080361
 20
13.98325633540681
 30
0.0
 11
30.34049670080361
 21
12.42825633540681
 31
0.0
  0
LINE
  5
653B
330
17
100
AcDbEntity
  8
R-ANNO-DIMS
  6
Continuous
100
AcDbLine
 10
28.59049670080361
 20
12.60825633540681
 30
0.0
 11
30.09049670080361
 21
12.60825633540681
 31
0.0
  0
SOLID
  5
653C
330
17
100
AcDbEntity
  8
R-ANNO-DIMS
  6
Continuous
100
AcDbTrace
 10
28.59049670080361
 20
12.64992300207347
 30
0.0
 11
28.59049670080361
 21
12.56658966874014
 31
0.0
 12
28.34049670080361
 22
12.60825633540681
 32
0.0
 13
28.34049670080361
 23
12.60825633540681
 33
0.0
  0
SOLID
  5
653D
330
17
100
AcDbEntity
  8
R-ANNO-DIMS
  6
Continuous
100
AcDbTrace
 10
30.09049670080361
 20
12.64992300207347
 30
0.0
 11
30.09049670080361
 21
12.56658966874014
 31
0.0
 12
30.34049670080361
 22
12.60825633540681
 32
0.0
 13
30.34049670080361
 23
12.60825633540681
 33
0.0
  0
MTEXT
  5
653E
330
17
100
AcDbEntity
  8
R-ANNO-DIMS
  6
Continuous
100
AcDbMText
 10
29.34049670080361
 20
12.83325633540681
 30
0.0
 40
0.25
 41
0.0
 71
     5
 72
     1
  1
\A1;2"
 73
     1
 44
1.0
1001
ACAD
1000
MTEXTBEGIN
1070
    73
1070
     1
1070
    44
1040
1.0
1070
    74
1070
     0
1000
MTEXTEND
  0
LINE
  5
653F
330
17
100
AcDbEntity
  8
R-ANNO-DIMS
  6
Continuous
100
AcDbLine
 10
30.34049670080361
 20
13.98325633540681
 30
0.0
 11
30.34049670080361
 21
12.42825633540681
 31
0.0
  0
LINE
  5
6540
330
17
100
AcDbEntity
  8
R-ANNO-DIMS
  6
Continuous
100
AcDbLine
 10
30.59049670080361
 20
12.60825633540681
 30
0.0
 11
32.09050670080362
 21
12.60825633540681
 31
0.0
  0
SOLID
  5
6541
330
17
100
AcDbEntity
  8
R-ANNO-DIMS
  6
Continuous
100
AcDbTrace
 10
30.59049670080361
 20
12.64992300207347
 30
0.0
 11
30.59049670080361
 21
12.56658966874014
 31
0.0
 12
30.34049670080361
 22
12.60825633540681
 32
0.0
 13
30.34049670080361
 23
12.60825633540681
 33
0.0
  0
SOLID
  5
6542
330
17
100
AcDbEntity
  8
R-ANNO-DIMS
  6
Continuous
100
AcDbTrace
 10
32.09050670080362
 20
12.64992300207347
 30
0.0
 11
32.09050670080362
 21
12.56658966874014
 31
0.0
 12
32.34050670080362
 22
12.60825633540681
 32
0.0
 13
32.34050670080362
 23
12.60825633540681
 33
0.0
  0
MTEXT
  5
6543
330
17
100
AcDbEntity
  8
R-ANNO-DIMS
  6
Continuous
100
AcDbMText
 10
31.34050170080362
 20
12.83325633540681
 30
0.0
 40
0.25
 41
0.0
 71
     5
 72
     1
  1
\A1;DLO
 73
     1
 44
1.0
1001
ACAD
1000
MTEXTBEGIN
1070
    73
1070
     1
1070
    44
1040
1.0
1070
    74
1070
     0
1000
MTEXTEND
  0
LWPOLYLINE
  5
6544
330
17
100
AcDbEntity
  8
R-SWTS-DET1
100
AcDbPolyline
 90
        6
 70
     0
 43
0.0
 10
15.64031040790407
 20
19.23527316511838
 10
15.64031040790407
 20
16.71028316511838
 10
15.44033040790406
 20
16.66026316511838
 10
15.84031040790407
 20
16.56028316511838
 10
15.64031040790407
 20
16.51028316511838
 10
15.64031040790407
 20
13.98527316511838
  0
LWPOLYLINE
  5
6545
330
17
100
AcDbEntity
  8
R-SWTS-DET1
100
AcDbPolyline
 90
        6
 70
     0
 43
0.0
 10
21.64033040790408
 20
13.98527316511838
 10
21.64032040790409
 20
16.49448633801488
 10
21.84030040790409
 20
16.54450633801489
 10
21.44032040790408
 20
16.64448633801489
 10
21.64032040790409
 20
16.69448633801488
 10
21.64033040790408
 20
19.23527316511838
  0
LINE
  5
6546
330
17
100
AcDbEntity
  8
R-SWTS-DET1
100
AcDbLine
 10
21.64032945879645
 20
14.23528834995266
 30
0.0
 11
15.64031040790407
 21
14.23527316511838
 31
0.0
  0
LINE
  5
6547
330
17
100
AcDbEntity
  8
R-SWTS-DET1
100
AcDbLine
 10
19.64032040790408
 20
14.36027316511838
 30
0.0
 11
21.64033040790408
 21
14.36027316511838
 31
0.0
  0
LINE
  5
6548
330
17
100
AcDbEntity
  8
R-SWTS-DET1
100
AcDbLine
 10
17.64032040790407
 20
14.36027316511838
 30
0.0
 11
15.64031040790407
 21
14.36027316511838
 31
0.0
  0
LINE
  5
6549
330
17
100
AcDbEntity
  8
R-SWTS-DET1
100
AcDbLine
 10
21.64032947003837
 20
18.98525816013366
 30
0.0
 11
15.64031040790407
 21
18.98527316511838
 31
0.0
  0
LINE
  5
654A
330
17
100
AcDbEntity
  8
R-SWTS-DET1
100
AcDbLine
 10
19.64032040790407
 20
18.86027316511838
 30
0.0
 11
21.64033040790407
 21
18.86027316511838
 31
0.0
  0
LINE
  5
654B
330
17
100
AcDbEntity
  8
R-SWTS-DET1
100
AcDbLine
 10
17.64032040790407
 20
18.86027316511838
 30
0.0
 11
15.64031040790407
 21
18.86027316511838
 31
0.0
  0
TEXT
  5
654C
330
17
100
AcDbEntity
  8
PART_NUMBERS
100
AcDbText
 10
15.81314246479467
 20
19.48721206278917
 30
0.0
 40
0.25
  1
451VG052 SHALLOW POCKET MULLION
100
AcDbText
  0
TEXT
  5
654D
330
17
100
AcDbEntity
  8
PART_NUMBERS
100
AcDbText
 10
15.81314246479467
 20
19.98721206278917
 30
0.0
 40
0.25
  1
451CG028 DEEP POCKET FILLER
100
AcDbText
  0
LWPOLYLINE
  5
654E
330
17
100
AcDbEntity
  8
R-SWTS-DET1
100
AcDbPolyline
 90
      133
 70
     1
 43
0.0
 10
19.64032040790408
 20
14.5031380766567
 10
19.53782040790407
 20
14.53916837968701
 10
19.53782040790407
 20
14.51016837968701
 10
19.46612040790407
 20
14.51016837968701
 42
-0.1989123673796512
 10
19.44844273837441
 20
14.51749071015735
 10
19.38182040790407
 20
14.58416837968701
 10
19.38182040790407
 20
14.62611837968701
 42
-0.3541185725306985
 10
19.39766217408772
 20
14.64568133170169
 10
19.49982040790407
 20
14.66811837968701
 10
19.53782040790407
 20
14.66811837968701
 10
19.53782040790407
 20
14.63911837968701
 10
19.54982040790407
 20
14.63911837968701
 42
0.4142135623730951
 10
19.56982040790407
 20
14.65911837968701
 10
19.56982040790407
 20
14.68811837968701
 42
0.4142135623730951
 10
19.54982040790407
 20
14.70811837968701
 10
19.34782540790407
 20
14.70811837968701
 42
0.4142135623730951
 10
19.30982040790407
 20
14.67011337968702
 10
19.33182040790407
 20
14.67011337968702
 10
19.33182040790407
 20
14.60811337968701
 10
19.30982040790407
 20
14.60811337968701
 10
19.30982040790407
 20
14.55333732358891
 42
0.1989018846181274
 10
19.31714202535607
 20
14.53566036710634
 10
19.37053813992737
 20
14.48225994487306
 42
-0.6681640521692886
 10
19.35639543388896
 20
14.44811837968701
 10
19.20032040790409
 20
14.44811837968701
 42
-0.4142135623730928
 10
19.14032040790409
 20
14.50811837968701
 10
19.14032040790408
 20
15.32428913726278
 10
19.13032040790408
 20
15.33428913726278
 10
19.14032040790408
 20
15.34428913726278
 10
19.14032040790408
 20
15.57428913726278
 10
19.13032040790408
 20
15.58428913726278
 10
19.14032040790408
 20
15.59428913726278
 10
19.14032040790408
 20
16.08412337968701
 42
-0.4142135623730951
 10
19.24032040790408
 20
16.18412337968701
 10
19.30682040790407
 20
16.18412337968701
 42
-0.4142135623730951
 10
19.33182040790407
 20
16.15912337968701
 10
19.33182040790407
 20
16.12212337968701
 10
19.30982040790407
 20
16.12212337968701
 42
0.4142135623730951
 10
19.34782540790407
 20
16.08411837968701
 10
19.54982040790407
 20
16.08411837968701
 42
0.4142135623730951
 10
19.56982040790407
 20
16.10411837968701
 10
19.56982040790407
 20
16.13311837968701
 42
0.4142135623730951
 10
19.54982040790407
 20
16.15311837968701
 10
19.53782040790407
 20
16.15311837968701
 10
19.53782040790407
 20
16.12411837968701
 10
19.49982040790407
 20
16.12411837968701
 10
19.39766217408772
 20
16.14655542767233
 42
-0.3541185725306792
 10
19.38182040790407
 20
16.16611837968701
 10
19.38182040790407
 20
16.20806837968701
 10
19.44844273837441
 20
16.27474604921667
 42
-0.1989123673796507
 10
19.46612040790407
 20
16.28206837968701
 10
19.53782040790407
 20
16.28206837968701
 10
19.53782040790407
 20
16.25306837968701
 10
19.64032040790408
 20
16.28909868271731
 10
19.64032040790408
 20
16.42411837968701
 10
19.64032040790408
 20
18.858118379687
 10
17.64032040790407
 20
18.858118379687
 10
17.64032040790407
 20
18.40411746732358
 10
17.72032040790407
 20
18.40411746732358
 10
17.72032040790407
 20
18.29611746732357
 42
0.4142135623730951
 10
17.78232040790406
 20
18.23411746732357
 10
17.80032040790407
 20
18.23411746732358
 10
17.80032040790407
 20
18.42211746732358
 42
0.4142135623730951
 10
17.73832040790407
 20
18.48411746732358
 10
17.72032040790407
 20
18.48411746732357
 10
17.72032040790407
 20
18.70811837968701
 42
-0.4142135623730929
 10
17.78032040790407
 20
18.768118379687
 10
19.50032040790407
 20
18.768118379687
 42
-0.4142135623730951
 10
19.56032040790407
 20
18.70811837968701
 10
19.56032040790407
 20
18.00961837968701
 42
-0.4142135623730951
 10
19.55032040790408
 20
17.99961837968701
 10
19.55032040790408
 20
17.65561837968703
 42
-0.4142135623730951
 10
19.56032040790407
 20
17.64561837968703
 10
19.56032040790407
 20
17.078618379687
 42
-0.4142135623730951
 10
19.55032040790408
 20
17.068618379687
 10
19.55032040790408
 20
16.72461837968702
 42
-0.4142135623730951
 10
19.56032040790407
 20
16.71461837968702
 10
19.56032040790407
 20
16.43206837968701
 42
-0.4142135623730951
 10
19.49032040790407
 20
16.36206837968701
 10
19.47026497865549
 20
16.36206837968701
 42
0.1990202627215682
 10
19.39598794995935
 20
16.33128376224395
 10
19.33474217714285
 20
16.26998711634283
 42
-0.1990202627215676
 10
19.32059417167691
 20
16.26412337968701
 10
19.23032040790408
 20
16.26412337968701
 42
0.4142135623730951
 10
19.06032040790408
 20
16.09412337968701
 10
19.06032040790407
 20
15.81528913726278
 42
-0.4142135623731081
 10
19.04032040790407
 20
15.79528913726278
 10
18.83532040790407
 20
15.79528913726278
 42
0.4142135623731173
 10
18.76532040790406
 20
15.72528913726278
 10
18.76532040790408
 20
15.58428913726278
 10
18.83082040790407
 20
15.58428913726279
 42
0.9999999999999998
 10
18.83082040790407
 20
15.61528913726278
 10
18.83032040790408
 20
15.61528913726278
 42
-0.4142135623730951
 10
18.81532040790408
 20
15.63028913726278
 10
18.81532040790408
 20
15.71028913726278
 42
-0.4142135623730976
 10
18.83032040790408
 20
15.72528913726278
 10
19.04532040790407
 20
15.72528913726278
 42
-0.4142135623730938
 10
19.06032040790407
 20
15.71028913726278
 10
19.06032040790407
 20
15.63028503862679
 42
-0.4190234982698207
 10
19.04507450626473
 20
15.61528705434944
 42
1.00823086916291
 10
19.04482040790407
 20
15.58428913726278
 10
19.06032040790407
 20
15.58428913726278
 10
19.06032040790407
 20
15.33428913726278
 10
19.04482040790407
 20
15.33428913726278
 42
0.9999999999999998
 10
19.04482040790407
 20
15.30328913726278
 10
19.04532040790408
 20
15.30328913726278
 42
-0.4142135623730951
 10
19.06032040790407
 20
15.28828913726278
 10
19.06032040790407
 20
15.20828913726277
 42
-0.4142135623730938
 10
19.04532040790408
 20
15.19328913726277
 10
18.83032040790408
 20
15.19328913726277
 42
-0.4142135623730951
 10
18.81532040790408
 20
15.20828913726277
 10
18.81532040790408
 20
15.28829323589876
 42
-0.4190234982697588
 10
18.83056630954342
 20
15.30329122017612
 42
1.008230869162782
 10
18.83082040790407
 20
15.33428913726276
 10
18.76532040790408
 20
15.33428913726277
 10
18.76532040790406
 20
15.19328913726277
 42
0.4142135623731173
 10
18.83532040790407
 20
15.12328913726277
 10
19.04032040790408
 20
15.12328913726277
 42
-0.4142135623730887
 10
19.06032040790408
 20
15.10328913726277
 10
19.06032040790408
 20
14.50811837968701
 42
-0.4142135623730951
 10
19.00032040790408
 20
14.44811837968701
 10
17.78032040790407
 20
14.44811837968701
 42
-0.4142135623730971
 10
17.72032040790407
 20
14.50811837968701
 10
17.72032040790407
 20
14.73211746732359
 10
17.73832040790407
 20
14.73211746732359
 42
0.4142135623730951
 10
17.80032040790407
 20
14.79411746732359
 10
17.80032040790407
 20
14.98211746732358
 10
17.78232040790406
 20
14.98211746732358
 42
0.4142135623730951
 10
17.72032040790407
 20
14.92011746732358
 10
17.72032040790407
 20
14.81211746732357
 10
17.64032040790407
 20
14.81211746732357
 10
17.64032040790407
 20
14.35811837968701
 10
19.64032040790408
 20
14.35811837968701
  0
LWPOLYLINE
  5
654F
330
17
100
AcDbEntity
  8
R-SWTS-DET1
100
AcDbPolyline
 90
       98
 70
     1
 43
0.0
 10
17.88297864172044
 20
15.86028611713306
 42
-0.3541185725306761
 10
17.89882040790408
 20
15.84072316511838
 10
17.89882040790408
 20
15.79877316511838
 10
17.83219807743375
 20
15.73209549558872
 42
-0.1989123673796582
 10
17.81452040790409
 20
15.72477316511838
 10
17.74282040790408
 20
15.72477316511838
 10
17.74282040790408
 20
15.75377316511838
 10
17.64032040790408
 20
15.71774286208808
 10
17.64032040790408
 20
14.81527316511838
 10
17.72032040790408
 20
14.81527316511838
 10
17.72032040790408
 20
14.98527316511838
 10
17.80632040790408
 20
14.98527316511837
 10
17.80632040790408
 20
14.92327316511838
 10
18.02332040790409
 20
15.00227316511838
 42
1.003724381894511
 10
17.99932040790408
 20
15.06777316511837
 10
17.8868220518478
 20
15.02677376424453
 42
-0.5183857430387555
 10
17.85997431247506
 20
15.04541895811538
 42
0.4120800626174657
 10
17.83997484387205
 20
15.06527316511838
 10
17.74032040790408
 20
15.06527316511838
 42
-0.4142135623730951
 10
17.72032040790408
 20
15.08527316511838
 10
17.72032040790408
 20
15.20927316511837
 42
-0.4142135623730951
 10
17.73032040790408
 20
15.21927316511837
 10
17.73032040790408
 20
15.38127316511837
 10
17.72032040790408
 20
15.39127316511837
 10
17.73032040790408
 20
15.40127316511837
 10
17.73032040790408
 20
15.56327316511837
 42
-0.4142135623730951
 10
17.72032040790408
 20
15.57327316511837
 10
17.72032040790408
 20
15.57477316511838
 42
-0.4142135623730951
 10
17.79032040790409
 20
15.64477316511838
 10
17.82037583715267
 20
15.64477316511838
 42
0.1990202627215674
 10
17.89465286584881
 20
15.67555778256144
 10
17.95595359301811
 20
15.73690942846255
 42
-0.1990202627215459
 10
17.97010159848405
 20
15.74277316511837
 10
18.55032040790409
 20
15.74277316511838
 42
0.4142135623730888
 10
18.72032040790409
 20
15.91277316511838
 10
18.72032040790409
 20
17.30777316511837
 42
0.4142135623730889
 10
18.55032040790409
 20
17.47777316511837
 10
17.97010159848404
 20
17.47777316511838
 42
-0.1990202627215466
 10
17.95595359301811
 20
17.4836369017742
 10
17.89465286584881
 20
17.54498854767531
 42
0.1990202627215655
 10
17.82037583715267
 20
17.57577316511837
 10
17.79032040790409
 20
17.57577316511837
 42
-0.4142135623730951
 10
17.72032040790408
 20
17.64577316511837
 10
17.72032040790408
 20
17.64727316511838
 42
-0.4142135623730951
 10
17.73032040790408
 20
17.65727316511838
 10
17.73032040790408
 20
17.81927316511838
 10
17.72032040790408
 20
17.82927316511838
 10
17.73032040790408
 20
17.83927316511838
 10
17.73032040790408
 20
18.00127316511838
 42
-0.4142135623730951
 10
17.72032040790408
 20
18.01127316511838
 10
17.72032040790408
 20
18.13527316511838
 42
-0.4142135623730951
 10
17.74032040790408
 20
18.15527316511838
 10
17.83997484387209
 20
18.15527316511838
 42
0.4120800626174634
 10
17.85997431247506
 20
18.17512737212138
 42
-0.5183857430387571
 10
17.8868220518478
 20
18.19377256599223
 10
17.99932040790408
 20
18.15277316511838
 42
1.003724381894516
 10
18.02332040790409
 20
18.21827316511838
 10
17.80632040790408
 20
18.29727316511838
 10
17.80632040790408
 20
18.23527316511838
 10
17.72032040790408
 20
18.23527316511838
 10
17.72032040790408
 20
18.40527316511838
 10
17.64032040790408
 20
18.40527316511838
 10
17.64032040790408
 20
17.50280346814867
 10
17.74282040790408
 20
17.46677316511838
 10
17.74282040790408
 20
17.49577316511837
 10
17.81452040790409
 20
17.49577316511837
 42
-0.1989123673796506
 10
17.83219807743375
 20
17.48845083464804
 10
17.89882040790408
 20
17.42177316511838
 10
17.89882040790408
 20
17.37982316511837
 42
-0.3541185725306762
 10
17.88297864172044
 20
17.3602602131037
 10
17.78082040790408
 20
17.33782316511837
 10
17.74282040790408
 20
17.33782316511837
 10
17.74282040790408
 20
17.36682316511837
 10
17.73082040790409
 20
17.36682316511837
 42
0.4142135623730951
 10
17.71082040790409
 20
17.34682316511837
 10
17.71082040790409
 20
17.31782316511838
 42
0.4142135623730951
 10
17.73082040790409
 20
17.29782316511838
 10
17.93281540790409
 20
17.29782316511838
 42
0.4142135623730951
 10
17.97082040790409
 20
17.33582816511837
 10
17.94882040790408
 20
17.33582816511837
 10
17.94882040790408
 20
17.37777316511838
 42
-0.4142135623731212
 10
17.96882040790409
 20
17.39777316511838
 10
18.54032040790409
 20
17.39777316511837
 42
-0.4142135623730898
 10
18.64032040790408
 20
17.29777316511837
 10
18.64032040790408
 20
15.92277316511838
 42
-0.4142135623730898
 10
18.54032040790408
 20
15.82277316511838
 10
17.96882040790409
 20
15.82277316511837
 42
-0.4142135623730951
 10
17.94882040790408
 20
15.84277316511837
 10
17.94882040790408
 20
15.88471816511838
 10
17.97082040790409
 20
15.88471816511838
 42
0.4142135623730951
 10
17.93281540790409
 20
15.92272316511838
 10
17.73082040790409
 20
15.92272316511838
 42
0.4142135623730951
 10
17.71082040790409
 20
15.90272316511838
 10
17.71082040790409
 20
15.87372316511838
 42
0.4142135623730951
 10
17.73082040790409
 20
15.85372316511838
 10
17.74282040790408
 20
15.85372316511838
 10
17.74282040790408
 20
15.88272316511838
 10
17.78082040790408
 20
15.88272316511838
  0
LINE
  5
6550
330
17
100
AcDbEntity
  8
R-SWTS-DET3
100
AcDbLine
 10
18.01532040790408
 20
17.10938155258352
 30
0.0
 11
15.64032040790408
 21
17.10938155258352
 31
0.0
  0
LINE
  5
6551
330
17
100
AcDbEntity
  8
R-SWTS-DET3
100
AcDbLine
 10
18.01532040790408
 20
16.85938155258352
 30
0.0
 11
15.64032040790408
 21
16.85938155258352
 31
0.0
  0
LINE
  5
6552
330
17
100
AcDbEntity
  8
R-SWTS-DET3
100
AcDbLine
 10
18.01532040790408
 20
16.35938155258352
 30
0.0
 11
15.64032040790408
 21
16.35938155258352
 31
0.0
  0
LINE
  5
6553
330
17
100
AcDbEntity
  8
R-SWTS-DET3
100
AcDbLine
 10
18.01532040790408
 20
16.10938155258352
 30
0.0
 11
15.64032040790408
 21
16.10938155258352
 31
0.0
  0
LINE
  5
6554
330
17
100
AcDbEntity
  8
R-SWTS-DET2
100
AcDbLine
 10
17.64032040790407
 20
17.62668526703836
 30
0.0
 11
15.64032040790408
 21
17.62668526703836
 31
0.0
  0
LINE
  5
6555
330
17
100
AcDbEntity
  8
R-SWTS-DET2
100
AcDbLine
 10
17.64032040790407
 20
15.59207783812867
 30
0.0
 11
15.64032040790408
 21
15.59207783812867
 31
0.0
  0
LINE
  5
6556
330
17
100
AcDbEntity
  8
R-SWTS-DET3
100
AcDbLine
 10
18.01532040790408
 20
17.10938155258352
 30
0.0
 11
18.01532040790408
 21
16.10938155258352
 31
0.0
  0
LINE
  5
6557
330
17
100
AcDbEntity
  8
R-SWTS-DET3
100
AcDbLine
 10
17.76532040790408
 20
16.85938155258352
 30
0.0
 11
17.76532040790408
 21
16.35938155258352
 31
0.0
  0
LINE
  5
6558
330
17
100
AcDbEntity
  8
R-SWTS-DET3
100
AcDbLine
 10
19.26532040790408
 20
14.89655999222186
 30
0.0
 11
21.64032040790409
 21
14.89655999222186
 31
0.0
  0
LINE
  5
6559
330
17
100
AcDbEntity
  8
R-SWTS-DET3
100
AcDbLine
 10
19.26532040790408
 20
15.14655999222187
 30
0.0
 11
21.64032040790409
 21
15.14655999222187
 31
0.0
  0
LINE
  5
655A
330
17
100
AcDbEntity
  8
R-SWTS-DET3
100
AcDbLine
 10
19.26532040790408
 20
15.64655999222187
 30
0.0
 11
21.64032040790409
 21
15.64655999222187
 31
0.0
  0
LINE
  5
655B
330
17
100
AcDbEntity
  8
R-SWTS-DET3
100
AcDbLine
 10
19.26532040790408
 20
15.89655999222187
 30
0.0
 11
21.64032040790409
 21
15.89655999222187
 31
0.0
  0
LINE
  5
655C
330
17
100
AcDbEntity
  8
R-SWTS-DET2
100
AcDbLine
 10
19.64032040790409
 20
14.37925627776702
 30
0.0
 11
21.64032040790409
 21
14.37925627776702
 31
0.0
  0
LINE
  5
655D
330
17
100
AcDbEntity
  8
R-SWTS-DET2
100
AcDbLine
 10
19.64032040790409
 20
16.41386370667671
 30
0.0
 11
21.64032040790409
 21
16.41386370667671
 31
0.0
  0
LINE
  5
655E
330
17
100
AcDbEntity
  8
R-SWTS-DET3
100
AcDbLine
 10
19.26532040790408
 20
14.89655999222186
 30
0.0
 11
19.26532040790408
 21
15.89655999222187
 31
0.0
  0
LINE
  5
655F
330
17
100
AcDbEntity
  8
R-SWTS-DET3
100
AcDbLine
 10
19.51532040790408
 20
15.14655999222187
 30
0.0
 11
19.51532040790408
 21
15.64655999222187
 31
0.0
  0
LWPOLYLINE
  5
6560
330
17
100
AcDbEntity
  8
R-SWTS-DET2
100
AcDbPolyline
 90
       31
 70
     1
 43
0.0
 10
19.52631837973963
 20
14.52307139636807
 10
19.5311926803376
 20
14.549887922907
 10
19.63842727801935
 20
14.51575779878587
 10
19.64330157689804
 20
14.4548111481258
 10
19.64032040790409
 20
14.37925627776702
 10
19.67132995052532
 20
14.38934681932534
 42
0.1257100272134179
 10
19.72307227811898
 20
14.62133822134739
 42
-0.2260837189018228
 10
19.77279013676308
 20
14.774923781779
 10
19.88373075492343
 20
14.87047909143869
 42
0.6449762263124317
 10
19.87198941244977
 20
14.89641338345688
 10
19.74275247682038
 20
14.89483364642883
 42
0.1518691569180708
 10
19.69831732247113
 20
14.87848086983249
 10
19.63839154320265
 20
14.83997768153724
 42
-0.0293454671788447
 10
19.58650890001003
 20
14.82258279233434
 10
19.46471489017298
 20
14.80535250275082
 42
-0.6538117075652882
 10
19.45772815320762
 20
14.82559331365368
 10
19.62297707069754
 20
14.869685060876
 42
0.8886355728344963
 10
19.62091563979815
 20
14.89483364642883
 10
19.4866700194055
 20
14.89483364642883
 42
0.0642046489364144
 10
19.29805376269821
 20
14.8524011845194
 42
0.6896355001773956
 10
19.29805376269821
 20
14.74979245413129
 42
0.0703560868358924
 10
19.4866700194055
 20
14.70855999222187
 10
19.58237282973913
 20
14.70855999222187
 10
19.58237282973913
 20
14.63521323424528
 10
19.52875553003862
 20
14.61327243942781
 10
19.52388123115993
 20
14.65227829734128
 10
19.48732398183302
 20
14.61814817114927
 10
19.46538963258072
 20
14.64984043148055
 10
19.41177233459949
 20
14.5888937787496
 10
19.47757538235636
 20
14.532822859811
 10
19.48732398183302
 20
14.5572015204892
  0
LWPOLYLINE
  5
6561
330
17
100
AcDbEntity
  8
R-SWTS-DET2
100
AcDbPolyline
 90
       31
 70
     1
 43
0.0
 10
19.52631837973963
 20
16.27004858807566
 10
19.5311926803376
 20
16.24323206153673
 10
19.63842727801935
 20
16.27736218565786
 10
19.64330157689804
 20
16.33830883631793
 10
19.64032040790409
 20
16.41386370667671
 10
19.67132995052532
 20
16.40377316511839
 42
-0.1257100272134179
 10
19.72307227811898
 20
16.17178176309633
 42
0.2260837189018228
 10
19.77279013676308
 20
16.01819620266473
 10
19.88373075492343
 20
15.92264089300504
 42
-0.6449762263124317
 10
19.87198941244977
 20
15.89670660098685
 10
19.74275247682038
 20
15.8982863380149
 42
-0.1518691569180708
 10
19.69831732247113
 20
15.91463911461123
 10
19.63839154320265
 20
15.95314230290649
 42
0.0293454671788447
 10
19.58650890001003
 20
15.97053719210938
 10
19.46471489017298
 20
15.98776748169291
 42
0.6538117075652882
 10
19.45772815320762
 20
15.96752667079005
 10
19.62297707069754
 20
15.92343492356772
 42
-0.8886355728344963
 10
19.62091563979815
 20
15.89828633801491
 10
19.4866700194055
 20
15.8982863380149
 42
-0.0642046489364144
 10
19.29805376269821
 20
15.94071879992433
 42
-0.6896355001773956
 10
19.29805376269821
 20
16.04332753031244
 42
-0.0703560868358924
 10
19.4866700194055
 20
16.08455999222186
 10
19.58237282973913
 20
16.08455999222186
 10
19.58237282973913
 20
16.15790675019845
 10
19.52875553003861
 20
16.17984754501592
 10
19.52388123115993
 20
16.14084168710245
 10
19.48732398183302
 20
16.17497181329446
 10
19.46538963258072
 20
16.14327955296318
 10
19.41177233459949
 20
16.20422620569413
 10
19.47757538235636
 20
16.26029712463273
 10
19.48732398183302
 20
16.23591846395453
  0
LWPOLYLINE
  5
6562
330
17
100
AcDbEntity
  8
R-SWTS-DET2
100
AcDbPolyline
 90
       31
 70
     1
 43
0.0
 10
17.75432243606853
 20
17.48287014843731
 10
17.74944813547056
 20
17.45605362189837
 10
17.64221353778881
 20
17.49018374601951
 10
17.63733923891012
 20
17.55113039667958
 10
17.64032040790407
 20
17.62668526703836
 10
17.60931086528284
 20
17.61659472548004
 42
0.1257100272134179
 10
17.55756853768919
 20
17.38460332345798
 42
-0.2260837189018228
 10
17.50785067904509
 20
17.23101776302638
 10
17.39691006088473
 20
17.13546245336669
 42
0.6449762263124317
 10
17.40865140335839
 20
17.1095281613485
 10
17.53788833898778
 20
17.11110789837656
 42
0.1518691569180708
 10
17.58232349333704
 20
17.12746067497288
 10
17.64224927260551
 20
17.16596386326814
 42
-0.0293454671788447
 10
17.69413191579814
 20
17.18335875247104
 10
17.81592592563518
 20
17.20058904205456
 42
-0.6538117075652882
 10
17.82291266260054
 20
17.1803482311517
 10
17.65766374511062
 20
17.13625648392938
 42
0.8886355728344963
 10
17.65972517601001
 20
17.11110789837656
 10
17.79397079640267
 20
17.11110789837656
 42
0.0642046489364144
 10
17.98258705310995
 20
17.15354036028598
 42
0.6896355001773956
 10
17.98258705310995
 20
17.25614909067409
 42
0.0703560868358924
 10
17.79397079640267
 20
17.29738155258351
 10
17.69826798606903
 20
17.29738155258351
 10
17.69826798606903
 20
17.37072831056011
 10
17.75188528576954
 20
17.39266910537758
 10
17.75675958464823
 20
17.3536632474641
 10
17.79331683397515
 20
17.38779337365611
 10
17.81525118322744
 20
17.35610111332483
 10
17.86886848120867
 20
17.41704776605578
 10
17.8030654334518
 20
17.47311868499438
 10
17.79331683397515
 20
17.44874002431618
  0
LWPOLYLINE
  5
6563
330
17
100
AcDbEntity
  8
R-SWTS-DET2
100
AcDbPolyline
 90
       31
 70
     1
 43
0.0
 10
17.75432243606853
 20
15.73589295672972
 10
17.74944813547056
 20
15.76270948326866
 10
17.64221353778881
 20
15.72857935914752
 10
17.63733923891012
 20
15.66763270848746
 10
17.64032040790407
 20
15.59207783812867
 10
17.60931086528284
 20
15.60216837968699
 42
-0.1257100272134179
 10
17.55756853768919
 20
15.83415978170905
 42
0.2260837189018228
 10
17.50785067904509
 20
15.98774534214065
 10
17.39691006088473
 20
16.08330065180035
 42
-0.6449762263124317
 10
17.4086514033584
 20
16.10923494381853
 10
17.53788833898778
 20
16.10765520679048
 42
-0.1518691569180708
 10
17.58232349333704
 20
16.09130243019414
 10
17.64224927260552
 20
16.05279924189889
 42
0.0293454671788447
 10
17.69413191579814
 20
16.035404352696
 10
17.81592592563518
 20
16.01817406311247
 42
0.6538117075652882
 10
17.82291266260054
 20
16.03841487401533
 10
17.65766374511062
 20
16.08250662123765
 42
-0.8886355728344963
 10
17.65972517601001
 20
16.10765520679048
 10
17.79397079640267
 20
16.10765520679048
 42
-0.0642046489364144
 10
17.98258705310995
 20
16.06522274488105
 42
-0.6896355001773956
 10
17.98258705310995
 20
15.96261401449294
 42
-0.0703560868358924
 10
17.79397079640267
 20
15.92138155258352
 10
17.69826798606903
 20
15.92138155258352
 10
17.69826798606903
 20
15.84803479460693
 10
17.75188528576955
 20
15.82609399978946
 10
17.75675958464823
 20
15.86509985770294
 10
17.79331683397515
 20
15.83096973151092
 10
17.81525118322744
 20
15.8626619918422
 10
17.86886848120867
 20
15.80171533911125
 10
17.8030654334518
 20
15.74564442017265
 10
17.79331683397515
 20
15.77002308085085
  0
LINE
  5
6564
330
17
100
AcDbEntity
  8
R-ANNO-DIMS
  6
Continuous
100
AcDbLine
 10
17.64032040790407
 20
13.60827134039152
 30
0.0
 11
17.64032040790407
 21
12.42827134039152
 31
0.0
  0
LINE
  5
6565
330
17
100
AcDbEntity
  8
R-ANNO-DIMS
  6
Continuous
100
AcDbLine
 10
17.39032040790408
 20
12.60827134039152
 30
0.0
 11
15.89031040790407
 21
12.60827134039152
 31
0.0
  0
SOLID
  5
6566
330
17
100
AcDbEntity
  8
R-ANNO-DIMS
  6
Continuous
100
AcDbTrace
 10
17.39032040790408
 20
12.64993800705819
 30
0.0
 11
17.39032040790408
 21
12.56660467372486
 31
0.0
 12
17.64032040790407
 22
12.60827134039152
 32
0.0
 13
17.64032040790407
 23
12.60827134039152
 33
0.0
  0
SOLID
  5
6567
330
17
100
AcDbEntity
  8
R-ANNO-DIMS
  6
Continuous
100
AcDbTrace
 10
15.89031040790407
 20
12.64993800705819
 30
0.0
 11
15.89031040790407
 21
12.56660467372486
 31
0.0
 12
15.64031040790407
 22
12.60827134039152
 32
0.0
 13
15.64031040790407
 23
12.60827134039152
 33
0.0
  0
MTEXT
  5
6568
330
17
100
AcDbEntity
  8
R-ANNO-DIMS
  6
Continuous
100
AcDbMText
 10
16.64031540790407
 20
12.83327134039152
 30
0.0
 40
0.25
 41
0.0
 71
     5
 72
     1
  1
\A1;DLO
 73
     1
 44
1.0
1001
ACAD
1000
MTEXTBEGIN
1070
    73
1070
     1
1070
    44
1040
1.0
1070
    74
1070
     0
1000
MTEXTEND
  0
LINE
  5
6569
330
17
100
AcDbEntity
  8
R-ANNO-DIMS
  6
Continuous
100
AcDbLine
 10
17.64032040790407
 20
13.98327134039152
 30
0.0
 11
17.64032040790407
 21
12.42827134039152
 31
0.0
  0
LINE
  5
656A
330
17
100
AcDbEntity
  8
R-ANNO-DIMS
  6
Continuous
100
AcDbLine
 10
19.64032040790408
 20
13.98327134039152
 30
0.0
 11
19.64032040790408
 21
12.42827134039152
 31
0.0
  0
LINE
  5
656B
330
17
100
AcDbEntity
  8
R-ANNO-DIMS
  6
Continuous
100
AcDbLine
 10
17.89032040790408
 20
12.60827134039152
 30
0.0
 11
19.39032040790408
 21
12.60827134039152
 31
0.0
  0
SOLID
  5
656C
330
17
100
AcDbEntity
  8
R-ANNO-DIMS
  6
Continuous
100
AcDbTrace
 10
17.89032040790408
 20
12.64993800705819
 30
0.0
 11
17.89032040790408
 21
12.56660467372486
 31
0.0
 12
17.64032040790407
 22
12.60827134039152
 32
0.0
 13
17.64032040790407
 23
12.60827134039152
 33
0.0
  0
SOLID
  5
656D
330
17
100
AcDbEntity
  8
R-ANNO-DIMS
  6
Continuous
100
AcDbTrace
 10
19.39032040790408
 20
12.64993800705819
 30
0.0
 11
19.39032040790408
 21
12.56660467372486
 31
0.0
 12
19.64032040790408
 22
12.60827134039152
 32
0.0
 13
19.64032040790408
 23
12.60827134039152
 33
0.0
  0
MTEXT
  5
656E
330
17
100
AcDbEntity
  8
R-ANNO-DIMS
  6
Continuous
100
AcDbMText
 10
18.64032040790408
 20
12.83327134039152
 30
0.0
 40
0.25
 41
0.0
 71
     5
 72
     1
  1
\A1;2"
 73
     1
 44
1.0
1001
ACAD
1000
MTEXTBEGIN
1070
    73
1070
     1
1070
    44
1040
1.0
1070
    74
1070
     0
1000
MTEXTEND
  0
LINE
  5
656F
330
17
100
AcDbEntity
  8
R-ANNO-DIMS
  6
Continuous
100
AcDbLine
 10
19.64032040790408
 20
13.98327134039152
 30
0.0
 11
19.64032040790408
 21
12.42827134039152
 31
0.0
  0
LINE
  5
6570
330
17
100
AcDbEntity
  8
R-ANNO-DIMS
  6
Continuous
100
AcDbLine
 10
19.89032040790408
 20
12.60827134039152
 30
0.0
 11
21.39033040790408
 21
12.60827134039152
 31
0.0
  0
SOLID
  5
6571
330
17
100
AcDbEntity
  8
R-ANNO-DIMS
  6
Continuous
100
AcDbTrace
 10
19.89032040790408
 20
12.64993800705819
 30
0.0
 11
19.89032040790408
 21
12.56660467372486
 31
0.0
 12
19.64032040790408
 22
12.60827134039152
 32
0.0
 13
19.64032040790408
 23
12.60827134039152
 33
0.0
  0
SOLID
  5
6572
330
17
100
AcDbEntity
  8
R-ANNO-DIMS
  6
Continuous
100
AcDbTrace
 10
21.39033040790408
 20
12.64993800705819
 30
0.0
 11
21.39033040790408
 21
12.56660467372486
 31
0.0
 12
21.64033040790408
 22
12.60827134039152
 32
0.0
 13
21.64033040790408
 23
12.60827134039152
 33
0.0
  0
MTEXT
  5
6573
330
17
100
AcDbEntity
  8
R-ANNO-DIMS
  6
Continuous
100
AcDbMText
 10
20.64032540790408
 20
12.83327134039152
 30
0.0
 40
0.25
 41
0.0
 71
     5
 72
     1
  1
\A1;DLO
 73
     1
 44
1.0
1001
ACAD
1000
MTEXTBEGIN
1070
    73
1070
     1
1070
    44
1040
1.0
1070
    74
1070
     0
1000
MTEXTEND
  0
LWPOLYLINE
  5
6574
330
17
100
AcDbEntity
  8
R-SWTS-DET1
100
AcDbPolyline
 90
        6
 70
     0
 43
0.0
 10
42.73764701621451
 20
13.97295780869704
 10
42.73764701621451
 20
16.49794780869703
 10
42.93762701621451
 20
16.54796780869703
 10
42.53764701621451
 20
16.64794780869703
 10
42.73764701621451
 20
16.69794780869703
 10
42.73764701621451
 20
19.22295780869704
  0
LWPOLYLINE
  5
6575
330
17
100
AcDbEntity
  8
R-SWTS-DET1
100
AcDbPolyline
 90
        6
 70
     0
 43
0.0
 10
36.73762701621451
 20
19.22295780869704
 10
36.73762701621451
 20
16.69796780869704
 10
36.5376470162145
 20
16.64794780869703
 10
36.93762701621452
 20
16.54796780869703
 10
36.73762701621451
 20
16.49796780869704
 10
36.73762701621451
 20
13.97295780869704
  0
LINE
  5
6576
330
17
100
AcDbEntity
  8
R-SWTS-DET1
100
AcDbLine
 10
42.73764701621451
 20
14.23524315514895
 30
0.0
 11
36.73762701621451
 21
14.23524315514895
 31
0.0
  0
LINE
  5
6577
330
17
100
AcDbEntity
  8
R-SWTS-DET1
100
AcDbLine
 10
38.73763701621451
 20
14.36024315514895
 30
0.0
 11
36.73762701621451
 21
14.36024315514895
 31
0.0
  0
LINE
  5
6578
330
17
100
AcDbEntity
  8
R-SWTS-DET1
100
AcDbLine
 10
40.73763701621451
 20
14.36024315514895
 30
0.0
 11
42.73764701621451
 21
14.36024315514895
 31
0.0
  0
LINE
  5
6579
330
17
100
AcDbEntity
  8
R-SWTS-DET1
100
AcDbLine
 10
42.73764701621451
 20
18.98524315514895
 30
0.0
 11
36.7376270162145
 21
18.98524315514895
 31
0.0
  0
LINE
  5
657A
330
17
100
AcDbEntity
  8
R-SWTS-DET1
100
AcDbLine
 10
38.7376370162145
 20
18.86024315514895
 30
0.0
 11
36.7376270162145
 21
18.86024315514895
 31
0.0
  0
LINE
  5
657B
330
17
100
AcDbEntity
  8
R-SWTS-DET1
100
AcDbLine
 10
40.7376370162145
 20
18.86024315514895
 30
0.0
 11
42.7376470162145
 21
18.86024315514895
 31
0.0
  0
TEXT
  5
657C
330
17
100
AcDbEntity
  8
PART_NUMBERS
100
AcDbText
 10
36.91045907310512
 20
19.47544003383316
 30
0.0
 40
0.25
  1
451VG001 MULLION
100
AcDbText
  0
TEXT
  5
657D
330
17
100
AcDbEntity
  8
PART_NUMBERS
100
AcDbText
 10
36.91045907310512
 20
19.97544003383316
 30
0.0
 40
0.25
  1
451CG002 POCKET FILLER
100
AcDbText
  0
LWPOLYLINE
  5
657E
330
17
100
AcDbEntity
  8
R-SWTS-DET1
100
AcDbPolyline
 90
       98
 70
     1
 43
0.0
 10
40.63513701621448
 20
17.33653836971757
 10
40.59713701621447
 20
17.33653836971757
 10
40.49497878239812
 20
17.35897541770289
 42
-0.3541185725306792
 10
40.47913701621448
 20
17.37853836971757
 10
40.47913701621448
 20
17.42048836971757
 10
40.54575934668481
 20
17.48716603924723
 42
-0.1989123673796537
 10
40.56343701621448
 20
17.49448836971757
 10
40.63513701621448
 20
17.49448836971757
 10
40.63513701621448
 20
17.46548836971757
 10
40.73763701621447
 20
17.50151867274787
 10
40.73763701621447
 20
18.40398836971757
 10
40.65763701621448
 20
18.40398836971757
 10
40.65763701621448
 20
18.23398836971757
 10
40.57163701621448
 20
18.23398836971758
 10
40.57163701621448
 20
18.29598836971758
 10
40.35463701621448
 20
18.21698836971757
 42
1.003724381894516
 10
40.37863701621448
 20
18.15148836971757
 10
40.49113537227076
 20
18.19248777059142
 42
-0.5183857430387767
 10
40.51798311164352
 20
18.17384257672057
 42
0.4120800626174649
 10
40.53798258024651
 20
18.15398836971757
 10
40.64763701621448
 20
18.15398836971757
 42
-0.4378145317003978
 10
40.65763701621448
 20
18.14398836971757
 10
40.65763701621448
 20
18.01998836971758
 42
-0.2907175366164647
 10
40.64763701621448
 20
17.99998836971758
 10
40.64763701621448
 20
17.83798836971758
 10
40.65763701621448
 20
17.82798836971758
 10
40.64763701621448
 20
17.81798836971758
 10
40.64763701621448
 20
17.66330887779326
 42
-0.2679491924311257
 10
40.65763701621448
 20
17.64598836971757
 10
40.65763701621448
 20
17.64448836971757
 42
-0.4142135623730951
 10
40.58763701621447
 20
17.57448836971757
 10
40.5575815869659
 20
17.57448836971757
 42
0.1990202627215669
 10
40.48330455826975
 20
17.54370375227451
 10
40.42200383110045
 20
17.4823521063734
 42
-0.1990202627215582
 10
40.40785582563452
 20
17.47648836971758
 10
40.32763701621446
 20
17.47648836971758
 42
0.4142135623730753
 10
40.15763701621447
 20
17.30648836971758
 10
40.15763701621447
 20
15.91148836971757
 42
0.4142135623730693
 10
40.32763701621446
 20
15.74148836971757
 10
40.40785582563452
 20
15.74148836971757
 42
-0.1990202627215434
 10
40.42200383110045
 20
15.73562463306174
 10
40.48330455826975
 20
15.67427298716064
 42
0.1990202627215654
 10
40.5575815869659
 20
15.64348836971758
 10
40.58763701621447
 20
15.64348836971758
 42
-0.4142135623730951
 10
40.65763701621448
 20
15.57348836971758
 10
40.65763701621448
 20
15.57198836971757
 42
-0.2679491924311376
 10
40.64763701621448
 20
15.55466786164188
 10
40.64763701621448
 20
15.39998836971757
 10
40.65763701621448
 20
15.38998836971757
 10
40.64763701621448
 20
15.37998836971757
 10
40.64763701621448
 20
15.21798836971757
 42
-0.2459617249876099
 10
40.65763701621448
 20
15.19798836971757
 10
40.65763701621448
 20
15.08398836971757
 42
-0.4142135623730951
 10
40.63763701621448
 20
15.06398836971757
 10
40.53798258024656
 20
15.06398836971757
 42
0.4120800626175069
 10
40.5179831116435
 20
15.04413416271457
 42
-0.518385743038754
 10
40.49113537227076
 20
15.02548896884373
 10
40.37863701621448
 20
15.06648836971757
 42
1.003724381894507
 10
40.35463701621448
 20
15.00098836971757
 10
40.57163701621448
 20
14.92198836971757
 10
40.57163701621448
 20
14.98398836971757
 10
40.65763701621448
 20
14.98398836971757
 10
40.65763701621448
 20
14.81398836971757
 10
40.73763701621447
 20
14.81398836971757
 10
40.73763701621447
 20
15.71645806668727
 10
40.63513701621448
 20
15.75248836971757
 10
40.63513701621448
 20
15.72348836971758
 10
40.56343701621448
 20
15.72348836971758
 42
-0.1989123673796526
 10
40.54575934668481
 20
15.73081070018792
 10
40.47913701621448
 20
15.79748836971758
 10
40.47913701621448
 20
15.83943836971758
 42
-0.3541185725306792
 10
40.49497878239812
 20
15.85900132173225
 10
40.59713701621447
 20
15.88143836971758
 10
40.63513701621448
 20
15.88143836971758
 10
40.63513701621448
 20
15.85243836971758
 10
40.64713701621448
 20
15.85243836971758
 42
0.4142135623730951
 10
40.66713701621448
 20
15.87243836971758
 10
40.66713701621448
 20
15.90143836971758
 42
0.4142135623730951
 10
40.64713701621448
 20
15.92143836971757
 10
40.44514201621447
 20
15.92143836971757
 42
0.4142135623730951
 10
40.40713701621448
 20
15.88343336971758
 10
40.42913701621448
 20
15.88343336971758
 10
40.42913701621448
 20
15.84148836971757
 42
-0.4142135623731471
 10
40.40913701621447
 20
15.82148836971757
 10
40.33763701621447
 20
15.82148836971757
 42
-0.4142135623730716
 10
40.23763701621447
 20
15.92148836971757
 10
40.23763701621447
 20
17.29648836971757
 42
-0.414213562373069
 10
40.33763701621447
 20
17.39648836971757
 10
40.40913701621447
 20
17.39648836971758
 42
-0.4142135623731081
 10
40.42913701621448
 20
17.37648836971758
 10
40.42913701621447
 20
17.33454336971757
 10
40.40713701621448
 20
17.33454336971757
 42
0.4142135623730951
 10
40.44514201621447
 20
17.29653836971757
 10
40.64713701621448
 20
17.29653836971757
 42
0.4142135623730951
 10
40.66713701621448
 20
17.31653836971757
 10
40.66713701621448
 20
17.34553836971757
 42
0.4142135623730951
 10
40.64713701621448
 20
17.36553836971757
 10
40.63513701621448
 20
17.36553836971757
  0
LWPOLYLINE
  5
657F
330
17
100
AcDbEntity
  8
R-SWTS-DET1
100
AcDbPolyline
 90
      148
 70
     1
 43
0.0
 10
39.81763701621453
 20
17.50927449141847
 10
39.81763701621453
 20
17.58579173792605
 42
-0.3242050878081617
 10
39.82796488506698
 20
17.60004555111908
 42
0.8529632016673883
 10
39.82313701621453
 20
17.63027449141848
 10
39.81763701621453
 20
17.63027449141848
 10
39.81763701621453
 20
17.88027449141848
 10
39.82313701621453
 20
17.88027449141849
 42
0.8529632016668454
 10
39.82796488506698
 20
17.91050343171782
 42
-0.3242050878078117
 10
39.81763701621453
 20
17.9247572449108
 10
39.81763701621453
 20
18.00127449141848
 42
-0.4142135623731015
 10
39.83763701621452
 20
18.02127449141848
 10
40.04263701621452
 20
18.02127449141848
 42
-0.4142135623730951
 10
40.06263701621452
 20
18.00127449141848
 10
40.06263701621452
 20
17.92627449141849
 42
-0.4142135623730951
 10
40.04763701621452
 20
17.91127449141849
 10
40.04713701621453
 20
17.91127449141849
 42
0.9999999999999998
 10
40.04713701621453
 20
17.88027449141849
 10
40.11263701621452
 20
17.88027449141849
 10
40.11263701621453
 20
18.02127449141848
 42
0.4142135623731173
 10
40.04263701621453
 20
18.09127449141849
 10
39.83763701621452
 20
18.09127449141849
 42
-0.414213562373108
 10
39.81763701621452
 20
18.11127449141848
 10
39.81763701621453
 20
18.70644524899425
 42
-0.4142135623730906
 10
39.87763701621452
 20
18.76644524899424
 10
40.59763701621451
 20
18.76644524899424
 42
-0.4142135623730897
 10
40.65763701621452
 20
18.70644524899425
 10
40.65763701621452
 20
18.48244616135766
 10
40.63963701621452
 20
18.48244616135766
 42
0.4142135623730951
 10
40.57763701621452
 20
18.42044616135767
 10
40.57763701621452
 20
18.23244616135768
 10
40.59563701621452
 20
18.23244616135768
 42
0.4142135623730951
 10
40.65763701621452
 20
18.29444616135767
 10
40.65763701621452
 20
18.40244616135768
 10
40.73763701621452
 20
18.40244616135768
 10
40.73763701621452
 20
18.85644524899425
 10
38.73763701621452
 20
18.85644524899425
 10
38.73763701621452
 20
18.71142555202454
 10
38.84013701621452
 20
18.67539524899424
 10
38.84013701621452
 20
18.70439524899424
 10
38.91390929702209
 20
18.70439524899424
 42
-0.1990202627215749
 10
38.92805730248801
 20
18.69853151233842
 10
38.99613701621452
 20
18.63039524899424
 10
38.99613701621452
 20
18.58844571660794
 42
-0.3522182948120313
 10
38.98042736394442
 20
18.56891131320377
 10
38.87813701621452
 20
18.54644524899424
 10
38.84013701621452
 20
18.54644524899424
 10
38.84013701621452
 20
18.57544524899424
 10
38.82813701621452
 20
18.57544524899424
 42
0.4142135623730951
 10
38.80813701621452
 20
18.55544524899424
 10
38.80813701621452
 20
18.52644524899424
 42
0.4142135623730951
 10
38.82813701621452
 20
18.50644524899424
 10
39.03013201621453
 20
18.50644524899424
 42
0.4142135623730882
 10
39.06813701621452
 20
18.54445024899424
 10
39.04613701621452
 20
18.54445024899424
 10
39.04613701621452
 20
18.60645024899424
 10
39.06813701621452
 20
18.60645024899424
 10
39.06813701621452
 20
18.66329725476607
 42
0.198901884618123
 10
39.06227972225293
 20
18.67743881995212
 10
39.00741928419122
 20
18.7323036838082
 42
-0.6681640521692715
 10
39.02156199022962
 20
18.76644524899424
 10
39.67763701621452
 20
18.76644524899424
 42
-0.4142135623730928
 10
39.73763701621452
 20
18.70644524899425
 10
39.73763701621452
 20
17.89027449141848
 10
39.74763701621453
 20
17.88027449141847
 10
39.73763701621452
 20
17.87027449141848
 10
39.73763701621452
 20
17.64027449141848
 10
39.74763701621453
 20
17.63027449141848
 10
39.73763701621452
 20
17.62027449141848
 10
39.73763701621453
 20
17.13044024899424
 42
-0.4142135623730977
 10
39.63763701621452
 20
17.03044024899424
 10
39.07113701621452
 20
17.03044024899424
 42
-0.4142135623730951
 10
39.04613701621452
 20
17.05544024899425
 10
39.04613701621452
 20
17.09244024899425
 10
39.06813701621452
 20
17.09244024899425
 42
0.4142135623730951
 10
39.03013201621453
 20
17.13044524899425
 10
38.82813701621452
 20
17.13044524899425
 42
0.4142135623730951
 10
38.80813701621452
 20
17.11044524899424
 10
38.80813701621452
 20
17.08144524899425
 42
0.4142135623730951
 10
38.82813701621452
 20
17.06144524899424
 10
38.84013701621452
 20
17.06144524899424
 10
38.84013701621452
 20
17.09044524899425
 10
38.87813701621452
 20
17.09044524899425
 10
38.98029525003088
 20
17.06800820100892
 42
-0.3541185725306697
 10
38.99613701621452
 20
17.04844524899425
 10
38.99613701621452
 20
17.00649524899425
 10
38.92951468574418
 20
16.93981757946459
 42
-0.198912367379654
 10
38.91183701621452
 20
16.93249524899425
 10
38.84013701621452
 20
16.93249524899425
 10
38.84013701621452
 20
16.96149524899424
 10
38.73763701621451
 20
16.92546494596394
 10
38.73763701621451
 20
14.35644524899425
 10
40.73763701621452
 20
14.35644524899425
 10
40.73763701621452
 20
14.81044616135768
 10
40.65763701621452
 20
14.81044616135768
 10
40.65763701621452
 20
14.91844616135768
 42
0.4142135623730951
 10
40.59563701621452
 20
14.98044616135769
 10
40.57763701621452
 20
14.98044616135768
 10
40.57763701621452
 20
14.79244616135768
 42
0.4142135623730951
 10
40.63963701621452
 20
14.73044616135767
 10
40.65763701621452
 20
14.73044616135768
 10
40.65763701621452
 20
14.50644524899425
 42
-0.414213562373094
 10
40.59763701621451
 20
14.44644524899425
 10
38.87763701621452
 20
14.44644524899425
 42
-0.4142135623730951
 10
38.81763701621451
 20
14.50644524899425
 10
38.81763701621453
 20
15.22421541153346
 42
-0.5680984128595057
 10
38.84715052972804
 20
15.24180782639408
 42
0.3397540095737747
 10
39.04563701621452
 20
15.27369773246516
 10
39.04563701621453
 20
15.31766321669147
 10
39.0161563511657
 20
15.3346838865933
 42
0.3865446749097419
 10
39.00301165259891
 20
15.33182569126392
 42
-3.127286275187389
 10
39.00301165259892
 20
15.44206480672455
 42
0.3865446749096575
 10
39.0161563511657
 20
15.43920661139515
 10
39.04563701621453
 20
15.45622728129698
 10
39.04563701621452
 20
15.5001927655233
 42
0.3397540095737754
 10
38.84715052972805
 20
15.53208267159436
 42
-0.5680984128594928
 10
38.81763701621453
 20
15.54967508645499
 10
38.81763701621453
 20
16.15521541153347
 42
-0.5680984128595057
 10
38.84715052972804
 20
16.17280782639409
 42
0.3397540095737747
 10
39.04563701621452
 20
16.20469773246516
 10
39.04563701621453
 20
16.24866321669147
 10
39.0161563511657
 20
16.26568388659331
 42
0.3865446749097419
 10
39.00301165259891
 20
16.26282569126393
 42
-3.127286275187389
 10
39.00301165259892
 20
16.37306480672455
 42
0.3865446749096575
 10
39.0161563511657
 20
16.37020661139515
 10
39.04563701621453
 20
16.38722728129699
 10
39.04563701621452
 20
16.4311927655233
 42
0.3397540095737754
 10
38.84715052972805
 20
16.46308267159436
 42
-0.5680984128594928
 10
38.81763701621453
 20
16.480675086455
 10
38.81763701621452
 20
16.78249524899425
 42
-0.4142135623730951
 10
38.88763701621452
 20
16.85249524899425
 10
38.9176924454631
 20
16.85249524899425
 42
0.1990202627215673
 10
38.99196947415925
 20
16.88327986643731
 10
39.05321524697575
 20
16.94457651233843
 42
-0.1990202627215632
 10
39.06736325244168
 20
16.95044024899425
 10
39.64763701621452
 20
16.95044024899425
 42
0.4142135623730935
 10
39.81763701621453
 20
17.12044024899425
 10
39.81763701621453
 20
17.39927449141847
 42
-0.4142135623731081
 10
39.83763701621453
 20
17.41927449141847
 10
40.04263701621453
 20
17.41927449141847
 42
0.4142135623731173
 10
40.11263701621453
 20
17.48927449141848
 10
40.11263701621452
 20
17.63027449141847
 10
40.04713701621453
 20
17.63027449141847
 42
0.9999999999999998
 10
40.04713701621453
 20
17.59927449141847
 10
40.04763701621452
 20
17.59927449141847
 42
-0.4142135623730951
 10
40.06263701621452
 20
17.58427449141847
 10
40.06263701621452
 20
17.50927449141847
 42
-0.4142135623731015
 10
40.04263701621453
 20
17.48927449141848
 10
39.83763701621453
 20
17.48927449141847
 42
-0.4142135623730951
  0
LINE
  5
6580
330
17
100
AcDbEntity
  8
R-SWTS-DET3
100
AcDbLine
 10
39.11263701621452
 20
18.31800363645939
 30
0.0
 11
36.73763701621452
 21
18.31800363645939
 31
0.0
  0
LINE
  5
6581
330
17
100
AcDbEntity
  8
R-SWTS-DET3
100
AcDbLine
 10
39.11263701621452
 20
18.06800363645939
 30
0.0
 11
36.73763701621452
 21
18.06800363645939
 31
0.0
  0
LINE
  5
6582
330
17
100
AcDbEntity
  8
R-SWTS-DET3
100
AcDbLine
 10
39.11263701621452
 20
17.56800363645939
 30
0.0
 11
36.73763701621452
 21
17.56800363645939
 31
0.0
  0
LINE
  5
6583
330
17
100
AcDbEntity
  8
R-SWTS-DET3
100
AcDbLine
 10
39.11263701621452
 20
17.31800363645939
 30
0.0
 11
36.73763701621452
 21
17.31800363645939
 31
0.0
  0
LINE
  5
6584
330
17
100
AcDbEntity
  8
R-SWTS-DET2
100
AcDbLine
 10
38.73763701621451
 20
18.83530735091423
 30
0.0
 11
36.73763701621452
 21
18.83530735091423
 31
0.0
  0
LINE
  5
6585
330
17
100
AcDbEntity
  8
R-SWTS-DET2
100
AcDbLine
 10
38.73763701621451
 20
16.80069992200454
 30
0.0
 11
36.73763701621452
 21
16.80069992200454
 31
0.0
  0
LINE
  5
6586
330
17
100
AcDbEntity
  8
R-SWTS-DET3
100
AcDbLine
 10
39.11263701621452
 20
18.31800363645939
 30
0.0
 11
39.11263701621452
 21
17.31800363645939
 31
0.0
  0
LINE
  5
6587
330
17
100
AcDbEntity
  8
R-SWTS-DET3
100
AcDbLine
 10
38.86263701621452
 20
18.06800363645939
 30
0.0
 11
38.86263701621452
 21
17.56800363645939
 31
0.0
  0
LINE
  5
6588
330
17
100
AcDbEntity
  8
R-SWTS-DET3
100
AcDbLine
 10
40.36263701621449
 20
16.10897998225243
 30
0.0
 11
42.7376370162145
 21
16.10897998225243
 31
0.0
  0
LINE
  5
6589
330
17
100
AcDbEntity
  8
R-SWTS-DET3
100
AcDbLine
 10
40.36263701621449
 20
16.35897998225243
 30
0.0
 11
42.7376370162145
 21
16.35897998225243
 31
0.0
  0
LINE
  5
658A
330
17
100
AcDbEntity
  8
R-SWTS-DET3
100
AcDbLine
 10
40.36263701621449
 20
16.85897998225243
 30
0.0
 11
42.7376370162145
 21
16.85897998225243
 31
0.0
  0
LINE
  5
658B
330
17
100
AcDbEntity
  8
R-SWTS-DET3
100
AcDbLine
 10
40.36263701621449
 20
17.10897998225243
 30
0.0
 11
42.7376370162145
 21
17.10897998225243
 31
0.0
  0
LINE
  5
658C
330
17
100
AcDbEntity
  8
R-SWTS-DET2
100
AcDbLine
 10
40.7376370162145
 20
15.59167626779759
 30
0.0
 11
42.7376370162145
 21
15.59167626779759
 31
0.0
  0
LINE
  5
658D
330
17
100
AcDbEntity
  8
R-SWTS-DET2
100
AcDbLine
 10
40.7376370162145
 20
17.62628369670727
 30
0.0
 11
42.7376370162145
 21
17.62628369670727
 31
0.0
  0
LINE
  5
658E
330
17
100
AcDbEntity
  8
R-SWTS-DET3
100
AcDbLine
 10
40.36263701621449
 20
16.10897998225243
 30
0.0
 11
40.36263701621449
 21
17.10897998225243
 31
0.0
  0
LINE
  5
658F
330
17
100
AcDbEntity
  8
R-SWTS-DET3
100
AcDbLine
 10
40.6126370162145
 20
16.35897998225243
 30
0.0
 11
40.6126370162145
 21
16.85897998225243
 31
0.0
  0
LWPOLYLINE
  5
6590
330
17
100
AcDbEntity
  8
R-SWTS-DET2
100
AcDbPolyline
 90
       31
 70
     1
 43
0.0
 10
40.62363498805004
 20
15.73549138639863
 10
40.62850928864802
 20
15.76230791293757
 10
40.73574388632976
 20
15.72817778881644
 10
40.74061818520845
 20
15.66723113815637
 10
40.7376370162145
 20
15.59167626779759
 10
40.76864655883574
 20
15.6017668093559
 42
0.1257100272134179
 10
40.82038888642939
 20
15.83375821137796
 42
-0.2260837189018228
 10
40.87010674507349
 20
15.98734377180957
 10
40.98104736323384
 20
16.08289908146926
 42
0.6449762263124317
 10
40.96930602076018
 20
16.10883337348744
 10
40.8400690851308
 20
16.10725363645939
 42
0.1518691569180708
 10
40.79563393078154
 20
16.09090085986306
 10
40.73570815151306
 20
16.05239767156781
 42
-0.0293454671788447
 10
40.68382550832044
 20
16.03500278236491
 10
40.56203149848339
 20
16.01777249278138
 42
-0.6538117075652882
 10
40.55504476151803
 20
16.03801330368424
 10
40.72029367900795
 20
16.08210505090657
 42
0.8886355728344963
 10
40.71823224810857
 20
16.10725363645939
 10
40.5839866277159
 20
16.10725363645939
 42
0.0642046489364144
 10
40.39537037100862
 20
16.06482117454996
 42
0.6896355001773956
 10
40.39537037100862
 20
15.96221244416186
 42
0.0703560868358924
 10
40.5839866277159
 20
15.92097998225243
 10
40.67968943804954
 20
15.92097998225243
 10
40.67968943804954
 20
15.84763322427584
 10
40.62607213834903
 20
15.82569242945837
 10
40.62119783947034
 20
15.86469828737185
 10
40.58464059014343
 20
15.83056816117984
 10
40.56270624089114
 20
15.86226042151112
 10
40.5090889429099
 20
15.80131376878017
 10
40.57489199066678
 20
15.74524284984156
 10
40.58464059014343
 20
15.76962151051977
  0
LWPOLYLINE
  5
6591
330
17
100
AcDbEntity
  8
R-SWTS-DET2
100
AcDbPolyline
 90
       31
 70
     1
 43
0.0
 10
40.62363498805004
 20
17.48246857810623
 10
40.62850928864801
 20
17.45565205156729
 10
40.73574388632976
 20
17.48978217568842
 10
40.74061818520845
 20
17.55072882634849
 10
40.7376370162145
 20
17.62628369670727
 10
40.76864655883574
 20
17.61619315514895
 42
-0.1257100272134179
 10
40.82038888642939
 20
17.3842017531269
 42
0.2260837189018228
 10
40.87010674507349
 20
17.23061619269529
 10
40.98104736323384
 20
17.1350608830356
 42
-0.6449762263124317
 10
40.96930602076018
 20
17.10912659101742
 10
40.8400690851308
 20
17.11070632804547
 42
-0.1518691569180708
 10
40.79563393078154
 20
17.1270591046418
 10
40.73570815151306
 20
17.16556229293705
 42
0.0293454671788447
 10
40.68382550832044
 20
17.18295718213995
 10
40.56203149848339
 20
17.20018747172348
 42
0.6538117075652882
 10
40.55504476151803
 20
17.17994666082062
 10
40.72029367900795
 20
17.13585491359829
 42
-0.8886355728344963
 10
40.71823224810857
 20
17.11070632804547
 10
40.5839866277159
 20
17.11070632804547
 42
-0.0642046489364144
 10
40.39537037100862
 20
17.15313878995489
 42
-0.6896355001773956
 10
40.39537037100862
 20
17.255747520343
 42
-0.0703560868358924
 10
40.5839866277159
 20
17.29697998225243
 10
40.67968943804954
 20
17.29697998225243
 10
40.67968943804954
 20
17.37032674022902
 10
40.62607213834903
 20
17.39226753504649
 10
40.62119783947034
 20
17.35326167713301
 10
40.58464059014343
 20
17.38739180332502
 10
40.56270624089114
 20
17.35569954299374
 10
40.5090889429099
 20
17.41664619572469
 10
40.57489199066678
 20
17.4727171146633
 10
40.58464059014343
 20
17.44833845398509
  0
LWPOLYLINE
  5
6592
330
17
100
AcDbEntity
  8
R-SWTS-DET2
100
AcDbPolyline
 90
       31
 70
     1
 43
0.0
 10
38.85163904437897
 20
18.69149223231318
 10
38.846764743781
 20
18.66467570577425
 10
38.73953014609925
 20
18.69880582989538
 10
38.73465584722056
 20
18.75975248055545
 10
38.73763701621451
 20
18.83530735091423
 10
38.70662747359327
 20
18.82521680935591
 42
0.1257100272134179
 10
38.65488514599962
 20
18.59322540733385
 42
-0.2260837189018228
 10
38.60516728735552
 20
18.43963984690225
 10
38.49422666919517
 20
18.34408453724256
 42
0.6449762263124317
 10
38.50596801166883
 20
18.31815024522438
 10
38.63520494729821
 20
18.31972998225243
 42
0.1518691569180708
 10
38.67964010164747
 20
18.33608275884876
 10
38.73956588091595
 20
18.37458594714401
 42
-0.0293454671788447
 10
38.79144852410857
 20
18.39198083634691
 10
38.91324253394561
 20
18.40921112593044
 42
-0.6538117075652882
 10
38.92022927091098
 20
18.38897031502758
 10
38.75498035342106
 20
18.34487856780525
 42
0.8886355728344963
 10
38.75704178432044
 20
18.31972998225243
 10
38.8912874047131
 20
18.31972998225243
 42
0.0642046489364144
 10
39.07990366142038
 20
18.36216244416185
 42
0.6896355001773956
 10
39.07990366142039
 20
18.46477117454996
 42
0.0703560868358924
 10
38.8912874047131
 20
18.50600363645939
 10
38.79558459437947
 20
18.50600363645939
 10
38.79558459437947
 20
18.57935039443598
 10
38.84920189407998
 20
18.60129118925345
 10
38.85407619295867
 20
18.56228533133997
 10
38.89063344228559
 20
18.59641545753198
 10
38.91256779153787
 20
18.5647231972007
 10
38.96618508951911
 20
18.62566984993165
 10
38.90038204176224
 20
18.68174076887025
 10
38.89063344228559
 20
18.65736210819205
  0
LWPOLYLINE
  5
6593
330
17
100
AcDbEntity
  8
R-SWTS-DET2
100
AcDbPolyline
 90
       31
 70
     1
 43
0.0
 10
38.85163904437897
 20
16.94451504060559
 10
38.846764743781
 20
16.97133156714453
 10
38.73953014609925
 20
16.93720144302339
 10
38.73465584722056
 20
16.87625479236332
 10
38.73763701621451
 20
16.80069992200454
 10
38.70662747359327
 20
16.81079046356287
 42
-0.1257100272134179
 10
38.65488514599962
 20
17.04278186558492
 42
0.2260837189018228
 10
38.60516728735552
 20
17.19636742601652
 10
38.49422666919517
 20
17.29192273567621
 42
-0.6449762263124317
 10
38.50596801166883
 20
17.3178570276944
 10
38.63520494729821
 20
17.31627729066635
 42
-0.1518691569180708
 10
38.67964010164747
 20
17.29992451407001
 10
38.73956588091595
 20
17.26142132577477
 42
0.0293454671788447
 10
38.79144852410857
 20
17.24402643657187
 10
38.91324253394561
 20
17.22679614698834
 42
0.6538117075652882
 10
38.92022927091098
 20
17.2470369578912
 10
38.75498035342106
 20
17.29112870511353
 42
-0.8886355728344963
 10
38.75704178432044
 20
17.31627729066635
 10
38.8912874047131
 20
17.31627729066635
 42
-0.0642046489364144
 10
39.07990366142039
 20
17.27384482875692
 42
-0.6896355001773956
 10
39.07990366142039
 20
17.17123609836881
 42
-0.0703560868358924
 10
38.8912874047131
 20
17.13000363645939
 10
38.79558459437947
 20
17.13000363645939
 10
38.79558459437947
 20
17.0566568784828
 10
38.84920189407998
 20
17.03471608366533
 10
38.85407619295867
 20
17.07372194157881
 10
38.89063344228559
 20
17.03959181538679
 10
38.91256779153787
 20
17.07128407571807
 10
38.96618508951911
 20
17.01033742298713
 10
38.90038204176224
 20
16.95426650404852
 10
38.89063344228559
 20
16.97864516472673
  0
LINE
  5
6594
330
17
100
AcDbEntity
  8
R-ANNO-DIMS
  6
Continuous
100
AcDbLine
 10
38.7376370162145
 20
13.99381456718294
 30
0.0
 11
38.7376370162145
 21
12.43881456718294
 31
0.0
  0
LINE
  5
6595
330
17
100
AcDbEntity
  8
R-ANNO-DIMS
  6
Continuous
100
AcDbLine
 10
40.73763701621451
 20
13.99381456718294
 30
0.0
 11
40.73763701621451
 21
12.43881456718294
 31
0.0
  0
LINE
  5
6596
330
17
100
AcDbEntity
  8
R-ANNO-DIMS
  6
Continuous
100
AcDbLine
 10
38.9876370162145
 20
12.61881456718294
 30
0.0
 11
40.4876370162145
 21
12.61881456718294
 31
0.0
  0
SOLID
  5
6597
330
17
100
AcDbEntity
  8
R-ANNO-DIMS
  6
Continuous
100
AcDbTrace
 10
38.9876370162145
 20
12.6604812338496
 30
0.0
 11
38.9876370162145
 21
12.57714790051627
 31
0.0
 12
38.7376370162145
 22
12.61881456718294
 32
0.0
 13
38.7376370162145
 23
12.61881456718294
 33
0.0
  0
SOLID
  5
6598
330
17
100
AcDbEntity
  8
R-ANNO-DIMS
  6
Continuous
100
AcDbTrace
 10
40.4876370162145
 20
12.6604812338496
 30
0.0
 11
40.4876370162145
 21
12.57714790051627
 31
0.0
 12
40.73763701621451
 22
12.61881456718294
 32
0.0
 13
40.73763701621451
 23
12.61881456718294
 33
0.0
  0
MTEXT
  5
6599
330
17
100
AcDbEntity
  8
R-ANNO-DIMS
  6
Continuous
100
AcDbMText
 10
39.7376370162145
 20
12.84381456718294
 30
0.0
 40
0.25
 41
0.0
 71
     5
 72
     1
  1
\A1;2"
 73
     1
 44
1.0
1001
ACAD
1000
MTEXTBEGIN
1070
    73
1070
     1
1070
    44
1040
1.0
1070
    74
1070
     0
1000
MTEXTEND
  0
LINE
  5
659A
330
17
100
AcDbEntity
  8
R-ANNO-DIMS
  6
Continuous
100
AcDbLine
 10
40.73763701621451
 20
13.99381456718294
 30
0.0
 11
40.73763701621451
 21
12.43881456718294
 31
0.0
  0
LINE
  5
659B
330
17
100
AcDbEntity
  8
R-ANNO-DIMS
  6
Continuous
100
AcDbLine
 10
40.9876370162145
 20
12.61881456718294
 30
0.0
 11
42.4876470162145
 21
12.61881456718294
 31
0.0
  0
SOLID
  5
659C
330
17
100
AcDbEntity
  8
R-ANNO-DIMS
  6
Continuous
100
AcDbTrace
 10
40.9876370162145
 20
12.6604812338496
 30
0.0
 11
40.9876370162145
 21
12.57714790051627
 31
0.0
 12
40.73763701621451
 22
12.61881456718294
 32
0.0
 13
40.73763701621451
 23
12.61881456718294
 33
0.0
  0
SOLID
  5
659D
330
17
100
AcDbEntity
  8
R-ANNO-DIMS
  6
Continuous
100
AcDbTrace
 10
42.4876470162145
 20
12.6604812338496
 30
0.0
 11
42.4876470162145
 21
12.57714790051627
 31
0.0
 12
42.7376470162145
 22
12.61881456718294
 32
0.0
 13
42.7376470162145
 23
12.61881456718294
 33
0.0
  0
MTEXT
  5
659E
330
17
100
AcDbEntity
  8
R-ANNO-DIMS
  6
Continuous
100
AcDbMText
 10
41.73764201621451
 20
12.84381456718294
 30
0.0
 40
0.25
 41
0.0
 71
     5
 72
     1
  1
\A1;DLO
 73
     1
 44
1.0
1001
ACAD
1000
MTEXTBEGIN
1070
    73
1070
     1
1070
    44
1040
1.0
1070
    74
1070
     0
1000
MTEXTEND
  0
LINE
  5
659F
330
17
100
AcDbEntity
  8
R-ANNO-DIMS
  6
Continuous
100
AcDbLine
 10
38.7376370162145
 20
13.61881456718294
 30
0.0
 11
38.7376370162145
 21
12.43881456718294
 31
0.0
  0
LINE
  5
65A0
330
17
100
AcDbEntity
  8
R-ANNO-DIMS
  6
Continuous
100
AcDbLine
 10
38.4876370162145
 20
12.61881456718294
 30
0.0
 11
36.9876270162145
 21
12.61881456718294
 31
0.0
  0
SOLID
  5
65A1
330
17
100
AcDbEntity
  8
R-ANNO-DIMS
  6
Continuous
100
AcDbTrace
 10
38.4876370162145
 20
12.6604812338496
 30
0.0
 11
38.4876370162145
 21
12.57714790051627
 31
0.0
 12
38.7376370162145
 22
12.61881456718294
 32
0.0
 13
38.7376370162145
 23
12.61881456718294
 33
0.0
  0
SOLID
  5
65A2
330
17
100
AcDbEntity
  8
R-ANNO-DIMS
  6
Continuous
100
AcDbTrace
 10
36.9876270162145
 20
12.6604812338496
 30
0.0
 11
36.9876270162145
 21
12.57714790051627
 31
0.0
 12
36.7376270162145
 22
12.61881456718294
 32
0.0
 13
36.7376270162145
 23
12.61881456718294
 33
0.0
  0
MTEXT
  5
65A3
330
17
100
AcDbEntity
  8
R-ANNO-DIMS
  6
Continuous
100
AcDbMText
 10
37.7376320162145
 20
12.84381456718294
 30
0.0
 40
0.25
 41
0.0
 71
     5
 72
     1
  1
\A1;DLO
 73
     1
 44
1.0
1001
ACAD
1000
MTEXTBEGIN
1070
    73
1070
     1
1070
    44
1040
1.0
1070
    74
1070
     0
1000
MTEXTEND
  0
MTEXT
  5
66C1
102
{ACAD_XDICTIONARY
360
66C2
102
}
330
17
100
AcDbEntity
  8
TEXT
100
AcDbMText
 10
1.000000084398437
 20
2.0
 30
0.0
 40
0.375
 41
15.4571868900598
 71
     1
 72
     5
  1
ENGINEERING CHANGE:  97910-095 (MARCH 2017)\PFILE NAME:  KCDC042E SHEET 02 OF 02.DWG
 73
     1
 44
1.0
1001
ACAD
1000
ACAD_MTEXT_COLUMN_INFO_BEGIN
1070
    75
1070
     2
1070
    79
1070
     0
1070
    76
1070
     1
1070
    78
1070
     0
1070
    48
1040
15.4571868900598
1070
    49
1040
1.25
1070
    50
1070
     1
1040
0.0
1000
ACAD_MTEXT_COLUMN_INFO_END
1000
MTEXTBEGIN
1070
    73
1070
     1
1070
    44
1040
1.0
1070
    74
1070
     0
1000
MTEXTEND
  0
INSERT
  5
6A42
330
17
100
AcDbEntity
  8
0
100
AcDbBlockReference
  2
Kawneer Logo English
 10
1.0
 20
2.5
 30
0.0
 41
5.337
 42
5.337
 43
5.337
  0
ENDSEC
  0
SECTION
  2
OBJECTS
  0
DICTIONARY
  5
C
330
0
100
AcDbDictionary
281
     1
  3
ACAD_CIP_PREVIOUS_PRODUCT_INFO
350
669B
  3
ACAD_COLOR
350
6601
  3
ACAD_FIELDLIST
350
66BF
  3
ACAD_GROUP
350
D
  3
ACAD_LAYOUT
350
485C
  3
ACAD_MATERIAL
350
65CF
  3
ACAD_MLEADERSTYLE
350
6616
  3
ACAD_MLINESTYLE
350
1A
  3
ACAD_PLOTSETTINGS
350
485D
  3
ACAD_PLOTSTYLENAME
350
485A
  3
ACAD_SCALELIST
350
6604
  3
ACAD_TABLESTYLE
350
6602
  3
ACAD_VISUALSTYLE
350
65E8
  3
ACDB_RECOMPOSE_DATA
350
6A9F
  3
ACDBVARIABLEDICTIONARY
350
3E
  3
DWGPROPS
350
6AA0
  0
DICTIONARY
  5
6656
330
8
100
AcDbDictionary
280
     1
281
     1
  0
DICTIONARY
  5
6635
330
2
100
AcDbDictionary
280
     1
281
     1
  3
ACAD_LAYERSTATES
360
6636
  0
DICTIONARY
  5
6645
330
E
100
AcDbDictionary
280
     1
281
     1
  3
ADSK_XREC_LAYER_RECONCILED
360
6646
  0
DICTIONARY
  5
6647
330
6019
100
AcDbDictionary
280
     1
281
     1
  3
ADSK_XREC_LAYER_RECONCILED
360
6648
  0
DICTIONARY
  5
6649
330
601A
100
AcDbDictionary
280
     1
281
     1
  3
ADSK_XREC_LAYER_RECONCILED
360
664A
  0
DICTIONARY
  5
664B
330
601B
100
AcDbDictionary
280
     1
281
     1
  3
ADSK_XREC_LAYER_RECONCILED
360
664C
  0
DICTIONARY
  5
664D
330
601C
100
AcDbDictionary
280
     1
281
     1
  3
ADSK_XREC_LAYER_RECONCILED
360
664E
  0
DICTIONARY
  5
664F
330
601D
100
AcDbDictionary
280
     1
281
     1
  3
ADSK_XREC_LAYER_RECONCILED
360
6650
  0
DICTIONARY
  5
66B0
330
66AF
100
AcDbDictionary
280
     1
281
     1
  0
DICTIONARY
  5
4A11
330
17
100
AcDbDictionary
280
     1
281
     1
  3
ACAD_LAYOUTSELFREF
360
65CB
  0
DICTIONARY
  5
4A0F
330
14
100
AcDbDictionary
280
     1
281
     1
  3
ACAD_LAYOUTSELFREF
360
65CA
  0
DICTIONARY
  5
6A3E
330
6A34
100
AcDbDictionary
280
     1
281
     1
  3
ACAD_SORTENTS
360
6A3F
  0
DICTIONARY
  5
6A9D
330
6A35
100
AcDbDictionary
280
     1
281
     1
  3
ACAD_MTEXT_2008_RT
360
6A9E
  0
DICTIONARY
  5
66C2
330
66C1
100
AcDbDictionary
280
     1
281
     1
  0
XRECORD
  5
669B
102
{ACAD_REACTORS
330
C
102
}
330
C
100
AcDbXrecord
280
     1
300
ACD
300
2012
300
85730ACD_2012_0F
  0
DICTIONARY
  5
6601
102
{ACAD_REACTORS
330
C
102
}
330
C
100
AcDbDictionary
281
     1
  0
FIELDLIST
  5
66BF
102
{ACAD_REACTORS
330
C
102
}
330
C
100
AcDbIdSet
 90
        0
100
AcDbFieldList
  0
DICTIONARY
  5
D
102
{ACAD_REACTORS
330
C
102
}
330
C
100
AcDbDictionary
281
     1
  0
DICTIONARY
  5
485C
102
{ACAD_REACTORS
330
C
102
}
330
C
100
AcDbDictionary
281
     1
  3
Layout1
350
485F
  3
Model
350
485E
  0
DICTIONARY
  5
65CF
102
{ACAD_REACTORS
330
C
102
}
330
C
100
AcDbDictionary
281
     1
  3
ByBlock
350
65D8
  3
ByLayer
350
65D0
  3
Global
350
65E0
  0
DICTIONARY
  5
6616
102
{ACAD_REACTORS
330
C
102
}
330
C
100
AcDbDictionary
281
     1
  3
Standard
350
6617
  0
DICTIONARY
  5
1A
102
{ACAD_REACTORS
330
C
102
}
330
C
100
AcDbDictionary
281
     1
  3
STANDARD
350
1B
  0
DICTIONARY
  5
485D
102
{ACAD_REACTORS
330
C
102
}
330
C
100
AcDbDictionary
281
     1
  0
ACDBDICTIONARYWDFLT
  5
485A
102
{ACAD_REACTORS
330
C
102
}
330
C
100
AcDbDictionary
281
     1
  3
Normal
350
485B
100
AcDbDictionaryWithDefault
340
485B
  0
DICTIONARY
  5
6604
102
{ACAD_REACTORS
330
C
102
}
330
C
100
AcDbDictionary
281
     1
  3
A0
350
6605
  3
A1
350
6A12
  3
A2
350
6A13
  3
A3
350
6A14
  3
A4
350
6A15
  3
A5
350
6A16
  3
A6
350
6A17
  3
A7
350
6A18
  3
A8
350
6A19
  3
A9
350
6A1A
  3
B0
350
6A1B
  3
B1
350
6A1C
  3
B2
350
6A1D
  3
B3
350
6A1E
  3
B4
350
6A1F
  3
B5
350
6A20
  3
B6
350
6A21
  0
DICTIONARY
  5
6602
102
{ACAD_REACTORS
330
C
102
}
330
C
100
AcDbDictionary
281
     1
  3
Standard
350
6603
  0
DICTIONARY
  5
65E8
102
{ACAD_REACTORS
330
C
102
}
330
C
100
AcDbDictionary
281
     1
  3
2dWireframe
350
65EE
  3
3D Hidden
350
6A32
  3
3dWireframe
350
6A33
  3
Basic
350
65ED
  3
Brighten
350
65F4
  3
ColorChange
350
65F8
  3
Conceptual
350
65F1
  3
Dim
350
65F3
  3
EdgeColorOff
350
6600
  3
Facepattern
350
65F7
  3
Flat
350
65E9
  3
FlatWithEdges
350
65EA
  3
Gouraud
350
65EB
  3
GouraudWithEdges
350
65EC
  3
Hidden
350
65F0
  3
JitterOff
350
65FE
  3
Linepattern
350
65F6
  3
OverhangOff
350
65FF
  3
Realistic
350
65F2
  3
Shaded
350
65FD
  3
Shaded with edges
350
65FC
  3
Shades of Gray
350
65F9
  3
Sketchy
350
65FA
  3
Thicken
350
65F5
  3
Wireframe
350
65EF
  3
X-Ray
350
65FB
  0
XRECORD
  5
6A9F
102
{ACAD_REACTORS
330
C
102
}
330
C
100
AcDbXrecord
280
     1
 90
        1
330
6603
330
66C1
330
6A35
  0
DICTIONARY
  5
3E
102
{ACAD_REACTORS
330
C
102
}
330
C
100
AcDbDictionary
281
     1
  3
CANNOSCALE
350
6693
  3
CMLEADERSTYLE
350
6692
  3
CTABLESTYLE
350
6691
  3
DIMADEC
350
3F
  3
DIMASSOC
350
6696
  3
INDEXCTL
350
6695
  3
LAYEREVAL
350
6A8F
  3
LAYERNOTIFY
350
6A90
  3
LIGHTINGUNITS
350
6A8E
  3
MSLTSCALE
350
6A8D
  3
SORTENTS
350
6694
  3
XCLIPFRAME
350
6A9B
  0
XRECORD
  5
6AA0
102
{ACAD_REACTORS
330
C
102
}
330
C
100
AcDbXrecord
280
     1
  1
DWGPROPS COOKIE
  2

  3

  4

  6

  7

  8
quadiss
  9

300
=
301
=
302
=
303
=
304
=
305
=
306
=
307
=
308
=
309
=
 40
0.541868738425926
 41
2450777.537570949
 42
2457809.454103472
  1

 90
        0
  0
DICTIONARY
  5
6636
102
{ACAD_REACTORS
330
6635
102
}
330
6635
100
AcDbDictionary
281
     1
  0
XRECORD
  5
6646
102
{ACAD_REACTORS
330
6645
102
}
330
6645
100
AcDbXrecord
280
     1
290
     1
  0
XRECORD
  5
6648
102
{ACAD_REACTORS
330
6647
102
}
330
6647
100
AcDbXrecord
280
     1
290
     1
  0
XRECORD
  5
664A
102
{ACAD_REACTORS
330
6649
102
}
330
6649
100
AcDbXrecord
280
     1
290
     1
  0
XRECORD
  5
664C
102
{ACAD_REACTORS
330
664B
102
}
330
664B
100
AcDbXrecord
280
     1
290
     1
  0
XRECORD
  5
664E
102
{ACAD_REACTORS
330
664D
102
}
330
664D
100
AcDbXrecord
280
     1
290
     1
  0
XRECORD
  5
6650
102
{ACAD_REACTORS
330
664F
102
}
330
664F
100
AcDbXrecord
280
     1
290
     1
  0
XRECORD
  5
65CB
102
{ACAD_REACTORS
330
4A11
102
}
330
4A11
100
AcDbXrecord
280
     1
340
17
  0
XRECORD
  5
65CA
102
{ACAD_REACTORS
330
4A0F
102
}
330
4A0F
100
AcDbXrecord
280
     1
340
14
  0
SORTENTSTABLE
  5
6A3F
102
{ACAD_REACTORS
330
6A3E
102
}
330
6A3E
100
AcDbSortentsTable
330
6A34
  0
XRECORD
  5
6A9E
102
{ACAD_REACTORS
330
6A9D
102
}
330
6A9D
100
AcDbXrecord
280
     1
 40
102645.0
  1
\pxqr;{\fArial TUR|b0|i0|c0|p34;\T1.05;AN ARCONIC COMPANY}
  0
LAYOUT
  5
485F
102
{ACAD_XDICTIONARY
360
6AA3
102
}
102
{ACAD_REACTORS
330
485C
102
}
330
485C
100
AcDbPlotSettings
  1

  2
\\NOAKCI-SRV7\Marketing Communications - HP4550hdn
  4

  6

 40
0.0
 41
0.0
 42
0.0
 43
0.0
 44
0.0
 45
0.0
 46
0.0
 47
0.0
 48
0.0
 49
0.0
140
0.0
141
0.0
142
1.0
143
1.0
 70
   688
 72
     0
 73
     0
 74
     5
  7
monochrome.ctb
 75
    16
147
1.0
148
0.0
149
0.0
100
AcDbLayout
  1
Layout1
 70
     1
 71
     1
 10
0.0
 20
0.0
 11
12.0
 21
9.0
 12
0.0
 22
0.0
 32
0.0
 14
1.000000000000000E+20
 24
1.000000000000000E+20
 34
1.000000000000000E+20
 15
-1.000000000000000E+20
 25
-1.000000000000000E+20
 35
-1.000000000000000E+20
146
0.0
 13
0.0
 23
0.0
 33
0.0
 16
1.0
 26
0.0
 36
0.0
 17
0.0
 27
1.0
 37
0.0
 76
     0
330
14
  0
LAYOUT
  5
485E
102
{ACAD_XDICTIONARY
360
6AA1
102
}
102
{ACAD_REACTORS
330
485C
102
}
330
485C
100
AcDbPlotSettings
  1

  2
\\noakci-hub01\KCI_MKT_HP9000_PCL6
  4
11x17
  6

 40
3.174999952316284
 41
3.174999952316284
 42
3.17498779296875
 43
3.17498779296875
 44
279.3999938964844
 45
431.8000183105469
 46
0.0
 47
0.0
 48
0.0
 49
0.0
140
0.0
141
0.0
142
1.0
143
3.390426794445869
 70
 11952
 72
     0
 73
     1
 74
     1
  7
monochrome.ctb
 75
     0
147
0.2949481173397344
148
0.0873889752816979
149
0.0600747600600443
100
AcDbLayout
  1
Model
 70
     1
 71
     0
 10
0.0
 20
0.0
 11
12.0
 21
9.0
 12
0.0
 22
0.0
 32
0.0
 14
0.0
 24
0.0
 34
0.0
 15
0.0
 25
0.0
 35
0.0
146
0.0
 13
0.0
 23
0.0
 33
0.0
 16
1.0
 26
0.0
 36
0.0
 17
0.0
 27
1.0
 37
0.0
 76
     0
330
17
331
65A4
  0
MATERIAL
  5
65D8
102
{ACAD_XDICTIONARY
360
65D9
102
}
102
{ACAD_REACTORS
330
65CF
102
}
330
65CF
100
AcDbMaterial
  1
ByBlock
 72
     0
 43
0.0208333333333333
 43
0.0
 43
0.0
 43
0.0
 43
0.0
 43
0.0208333333333333
 43
0.0
 43
0.0
 43
0.0
 43
0.0
 43
1.0
 43
0.0
 43
0.0
 43
0.0
 43
0.0
 43
1.0
 77
     0
 47
0.0208333333333333
 47
0.0
 47
0.0
 47
0.0
 47
0.0
 47
0.0208333333333333
 47
0.0
 47
0.0
 47
0.0
 47
0.0
 47
1.0
 47
0.0
 47
0.0
 47
0.0
 47
0.0
 47
1.0
171
     0
 49
0.0208333333333333
 49
0.0
 49
0.0
 49
0.0
 49
0.0
 49
0.0208333333333333
 49
0.0
 49
0.0
 49
0.0
 49
0.0
 49
1.0
 49
0.0
 49
0.0
 49
0.0
 49
0.0
 49
1.0
175
     0
142
0.0208333333333333
142
0.0
142
0.0
142
0.0
142
0.0
142
0.0208333333333333
142
0.0
142
0.0
142
0.0
142
0.0
142
1.0
142
0.0
142
0.0
142
0.0
142
0.0
142
1.0
179
     0
144
0.0208333333333333
144
0.0
144
0.0
144
0.0
144
0.0
144
0.0208333333333333
144
0.0
144
0.0
144
0.0
144
0.0
144
1.0
144
0.0
144
0.0
144
0.0
144
0.0
144
1.0
147
0.0208333333333333
147
0.0
147
0.0
147
0.0
147
0.0
147
0.0208333333333333
147
0.0
147
0.0
147
0.0
147
0.0
147
1.0
147
0.0
147
0.0
147
0.0
147
0.0
147
1.0
  0
MATERIAL
  5
65D0
102
{ACAD_XDICTIONARY
360
65D1
102
}
102
{ACAD_REACTORS
330
65CF
102
}
330
65CF
100
AcDbMaterial
  1
ByLayer
 72
     0
 43
0.0208333333333333
 43
0.0
 43
0.0
 43
0.0
 43
0.0
 43
0.0208333333333333
 43
0.0
 43
0.0
 43
0.0
 43
0.0
 43
1.0
 43
0.0
 43
0.0
 43
0.0
 43
0.0
 43
1.0
 77
     0
 47
0.0208333333333333
 47
0.0
 47
0.0
 47
0.0
 47
0.0
 47
0.0208333333333333
 47
0.0
 47
0.0
 47
0.0
 47
0.0
 47
1.0
 47
0.0
 47
0.0
 47
0.0
 47
0.0
 47
1.0
171
     0
 49
0.0208333333333333
 49
0.0
 49
0.0
 49
0.0
 49
0.0
 49
0.0208333333333333
 49
0.0
 49
0.0
 49
0.0
 49
0.0
 49
1.0
 49
0.0
 49
0.0
 49
0.0
 49
0.0
 49
1.0
175
     0
142
0.0208333333333333
142
0.0
142
0.0
142
0.0
142
0.0
142
0.0208333333333333
142
0.0
142
0.0
142
0.0
142
0.0
142
1.0
142
0.0
142
0.0
142
0.0
142
0.0
142
1.0
179
     0
144
0.0208333333333333
144
0.0
144
0.0
144
0.0
144
0.0
144
0.0208333333333333
144
0.0
144
0.0
144
0.0
144
0.0
144
1.0
144
0.0
144
0.0
144
0.0
144
0.0
144
1.0
147
0.0208333333333333
147
0.0
147
0.0
147
0.0
147
0.0
147
0.0208333333333333
147
0.0
147
0.0
147
0.0
147
0.0
147
1.0
147
0.0
147
0.0
147
0.0
147
0.0
147
1.0
  0
MATERIAL
  5
65E0
102
{ACAD_XDICTIONARY
360
65E1
102
}
102
{ACAD_REACTORS
330
65CF
102
}
330
65CF
100
AcDbMaterial
  1
Global
 72
     0
 43
0.0208333333333333
 43
0.0
 43
0.0
 43
0.0
 43
0.0
 43
0.0208333333333333
 43
0.0
 43
0.0
 43
0.0
 43
0.0
 43
1.0
 43
0.0
 43
0.0
 43
0.0
 43
0.0
 43
1.0
 77
     0
 47
0.0208333333333333
 47
0.0
 47
0.0
 47
0.0
 47
0.0
 47
0.0208333333333333
 47
0.0
 47
0.0
 47
0.0
 47
0.0
 47
1.0
 47
0.0
 47
0.0
 47
0.0
 47
0.0
 47
1.0
171
     0
 49
0.0208333333333333
 49
0.0
 49
0.0
 49
0.0
 49
0.0
 49
0.0208333333333333
 49
0.0
 49
0.0
 49
0.0
 49
0.0
 49
1.0
 49
0.0
 49
0.0
 49
0.0
 49
0.0
 49
1.0
175
     0
142
0.0208333333333333
142
0.0
142
0.0
142
0.0
142
0.0
142
0.0208333333333333
142
0.0
142
0.0
142
0.0
142
0.0
142
1.0
142
0.0
142
0.0
142
0.0
142
0.0
142
1.0
179
     0
144
0.0208333333333333
144
0.0
144
0.0
144
0.0
144
0.0
144
0.0208333333333333
144
0.0
144
0.0
144
0.0
144
0.0
144
1.0
144
0.0
144
0.0
144
0.0
144
0.0
144
1.0
147
0.0208333333333333
147
0.0
147
0.0
147
0.0
147
0.0
147
0.0208333333333333
147
0.0
147
0.0
147
0.0
147
0.0
147
1.0
147
0.0
147
0.0
147
0.0
147
0.0
147
1.0
  0
MLEADERSTYLE
  5
6617
102
{ACAD_REACTORS
330
6616
102
}
330
6616
100
AcDbMLeaderStyle
170
     2
171
     1
172
     0
 90
        2
 40
0.0
 41
0.0
173
     1
 91
-1056964608
340
11
 92
       -2
290
     1
 42
0.09
291
     1
 43
0.36
  3
Standard
 44
0.18
300

342
F
174
     1
178
     6
175
     1
176
     0
 93
-1056964608
 45
0.18
292
     0
297
     0
 46
0.18
 94
-1056964608
 47
1.0
 49
1.0
140
1.0
293
     1
141
0.0
294
     1
177
     0
142
1.0
295
     0
296
     0
143
0.125
1001
ACAD_MLEADERVER
1070
     2
  0
MLINESTYLE
  5
1B
102
{ACAD_REACTORS
330
1A
102
}
330
1A
100
AcDbMlineStyle
  2
STANDARD
 70
     0
  3

 62
   256
 51
90.0
 52
90.0
 71
     2
 49
0.5
 62
   256
  6
BYLAYER
 49
-0.5
 62
   256
  6
BYLAYER
  0
ACDBPLACEHOLDER
  5
485B
102
{ACAD_REACTORS
330
485A
102
}
330
485A
  0
SCALE
  5
6605
102
{ACAD_REACTORS
330
6604
102
}
330
6604
100
AcDbScale
 70
     0
300
1:1
140
1.0
141
1.0
290
     1
  0
SCALE
  5
6A12
102
{ACAD_REACTORS
330
6604
102
}
330
6604
100
AcDbScale
 70
     0
300
1/128" = 1'-0"
140
0.0078125
141
12.0
290
     0
  0
SCALE
  5
6A13
102
{ACAD_REACTORS
330
6604
102
}
330
6604
100
AcDbScale
 70
     0
300
1/64" = 1'-0"
140
0.015625
141
12.0
290
     0
  0
SCALE
  5
6A14
102
{ACAD_REACTORS
330
6604
102
}
330
6604
100
AcDbScale
 70
     0
300
1/32" = 1'-0"
140
0.03125
141
12.0
290
     0
  0
SCALE
  5
6A15
102
{ACAD_REACTORS
330
6604
102
}
330
6604
100
AcDbScale
 70
     0
300
1/16" = 1'-0"
140
0.0625
141
12.0
290
     0
  0
SCALE
  5
6A16
102
{ACAD_REACTORS
330
6604
102
}
330
6604
100
AcDbScale
 70
     0
300
3/32" = 1'-0"
140
0.09375
141
12.0
290
     0
  0
SCALE
  5
6A17
102
{ACAD_REACTORS
330
6604
102
}
330
6604
100
AcDbScale
 70
     0
300
1/8" = 1'-0"
140
0.125
141
12.0
290
     0
  0
SCALE
  5
6A18
102
{ACAD_REACTORS
330
6604
102
}
330
6604
100
AcDbScale
 70
     0
300
3/16" = 1'-0"
140
0.1875
141
12.0
290
     0
  0
SCALE
  5
6A19
102
{ACAD_REACTORS
330
6604
102
}
330
6604
100
AcDbScale
 70
     0
300
1/4" = 1'-0"
140
0.25
141
12.0
290
     0
  0
SCALE
  5
6A1A
102
{ACAD_REACTORS
330
6604
102
}
330
6604
100
AcDbScale
 70
     0
300
3/8" = 1'-0"
140
0.375
141
12.0
290
     0
  0
SCALE
  5
6A1B
102
{ACAD_REACTORS
330
6604
102
}
330
6604
100
AcDbScale
 70
     0
300
1/2" = 1'-0"
140
0.5
141
12.0
290
     0
  0
SCALE
  5
6A1C
102
{ACAD_REACTORS
330
6604
102
}
330
6604
100
AcDbScale
 70
     0
300
3/4" = 1'-0"
140
0.75
141
12.0
290
     0
  0
SCALE
  5
6A1D
102
{ACAD_REACTORS
330
6604
102
}
330
6604
100
AcDbScale
 70
     0
300
1" = 1'-0"
140
1.0
141
12.0
290
     0
  0
SCALE
  5
6A1E
102
{ACAD_REACTORS
330
6604
102
}
330
6604
100
AcDbScale
 70
     0
300
1-1/2" = 1'-0"
140
1.5
141
12.0
290
     0
  0
SCALE
  5
6A1F
102
{ACAD_REACTORS
330
6604
102
}
330
6604
100
AcDbScale
 70
     0
300
3" = 1'-0"
140
3.0
141
12.0
290
     0
  0
SCALE
  5
6A20
102
{ACAD_REACTORS
330
6604
102
}
330
6604
100
AcDbScale
 70
     0
300
6" = 1'-0"
140
6.0
141
12.0
290
     0
  0
SCALE
  5
6A21
102
{ACAD_REACTORS
330
6604
102
}
330
6604
100
AcDbScale
 70
     0
300
1'-0" = 1'-0"
140
12.0
141
12.0
290
     0
  0
TABLESTYLE
  5
6603
102
{ACAD_XDICTIONARY
360
6652
102
}
102
{ACAD_REACTORS
330
6602
102
}
330
6602
100
AcDbTableStyle
  3
Standard
 70
     0
 71
     0
 40
0.06
 41
0.06
280
     0
281
     0
  7
STANDARD
140
0.18
170
     2
 62
     0
 63
     7
283
     0
274
    -2
284
     1
 64
     0
275
    -2
285
     1
 65
     0
276
    -2
286
     1
 66
     0
277
    -2
287
     1
 67
     0
278
    -2
288
     1
 68
     0
279
    -2
289
     1
 69
     0
  7
STANDARD
140
0.25
170
     5
 62
     0
 63
     7
283
     0
274
    -2
284
     1
 64
     0
275
    -2
285
     1
 65
     0
276
    -2
286
     1
 66
     0
277
    -2
287
     1
 67
     0
278
    -2
288
     1
 68
     0
279
    -2
289
     1
 69
     0
  7
STANDARD
140
0.18
170
     5
 62
     0
 63
     7
283
     0
274
    -2
284
     1
 64
     0
275
    -2
285
     1
 65
     0
276
    -2
286
     1
 66
     0
277
    -2
287
     1
 67
     0
278
    -2
288
     1
 68
     0
279
    -2
289
     1
 69
     0
  0
VISUALSTYLE
  5
65EE
102
{ACAD_XDICTIONARY
360
6AB2
102
}
102
{ACAD_REACTORS
330
65E8
102
}
330
65E8
100
AcDbVisualStyle
  2
2dWireframe
 70
     4
 71
     0
 72
     2
 73
     0
 90
        0
 40
-0.6
 41
-30.0
 62
     5
 63
     7
 74
     1
 91
        4
 64
     7
 65
   257
 75
     1
175
     1
 42
1.0
 92
        0
 66
   257
 43
1.0
 76
     1
 77
     6
 78
     2
 67
     7
 79
     5
170
     0
171
     0
290
     0
174
     0
 93
        1
 44
0.0
173
     0
291
     0
 45
0.0
1001
ACAD
1000
AcDbSavedByObjectVersion
1070
     0
  0
VISUALSTYLE
  5
6A32
102
{ACAD_XDICTIONARY
360
6AD9
102
}
102
{ACAD_REACTORS
330
65E8
102
}
330
65E8
100
AcDbVisualStyle
  2
3D Hidden
 70
     6
 71
     1
 72
     2
 73
     2
 90
        0
 40
-0.6
 41
-30.0
 62
     5
 63
     7
 74
     2
 91
        2
 64
     7
 65
   257
 75
     2
175
     1
 42
40.0
 92
        0
 66
   257
 43
1.0
 76
     1
 77
     6
 78
     2
 67
     7
 79
     3
170
     0
171
     0
290
     0
174
     0
 93
        1
 44
0.0
173
     0
291
     0
 45
0.0
1001
ACAD
1000
AcDbSavedByObjectVersion
1070
     0
  0
VISUALSTYLE
  5
6A33
102
{ACAD_XDICTIONARY
360
6ADB
102
}
102
{ACAD_REACTORS
330
65E8
102
}
330
65E8
100
AcDbVisualStyle
  2
3dWireframe
 70
     5
 71
     0
 72
     2
 73
     0
 90
        0
 40
-0.6
 41
-30.0
 62
     5
 63
     7
 74
     1
 91
        4
 64
     7
 65
   257
 75
     1
175
     1
 42
1.0
 92
        0
 66
   257
 43
1.0
 76
     1
 77
     6
 78
     2
 67
     7
 79
     5
170
     0
171
     0
290
     0
174
     0
 93
        1
 44
0.0
173
     0
291
     0
 45
0.0
1001
ACAD
1000
AcDbSavedByObjectVersion
1070
     0
  0
VISUALSTYLE
  5
65ED
102
{ACAD_XDICTIONARY
360
6AB0
102
}
102
{ACAD_REACTORS
330
65E8
102
}
330
65E8
100
AcDbVisualStyle
  2
Basic
 70
     7
 71
     1
 72
     0
 73
     1
 90
        0
 40
-0.6
 41
-30.0
 62
     5
 63
     7
 74
     0
 91
        4
 64
     7
 65
   257
 75
     1
175
     1
 42
1.0
 92
        8
 66
     7
 43
1.0
 76
     1
 77
     6
 78
     2
 67
     7
 79
     5
170
     0
171
     0
290
     0
174
     0
 93
        1
 44
0.0
173
     0
291
     1
 45
0.0
1001
ACAD
1000
AcDbSavedByObjectVersion
1070
     0
  0
VISUALSTYLE
  5
65F4
102
{ACAD_XDICTIONARY
360
6ABE
102
}
102
{ACAD_REACTORS
330
65E8
102
}
330
65E8
100
AcDbVisualStyle
  2
Brighten
 70
    12
 71
     2
 72
     2
 73
     0
 90
        0
 40
-0.6
 41
-30.0
 62
     5
 63
     7
 74
     1
 91
        4
 64
     7
 65
   257
 75
     1
175
     1
 42
1.0
 92
        8
 66
     7
 43
1.0
 76
     1
 77
     6
 78
     2
 67
     7
 79
     5
170
     0
171
     0
290
     0
174
     0
 93
        1
 44
50.0
173
     0
291
     1
 45
0.0
1001
ACAD
1000
AcDbSavedByObjectVersion
1070
     0
  0
VISUALSTYLE
  5
65F8
102
{ACAD_XDICTIONARY
360
6AC6
102
}
102
{ACAD_REACTORS
330
65E8
102
}
330
65E8
100
AcDbVisualStyle
  2
ColorChange
 70
    16
 71
     2
 72
     2
 73
     3
 90
        0
 40
-0.6
 41
-30.0
 62
     5
 63
     8
 74
     1
 91
        4
 64
     7
 65
   257
 75
     1
175
     1
 42
1.0
 92
        8
 66
     8
 43
1.0
 76
     1
 77
     6
 78
     2
 67
     7
 79
     5
170
     0
171
     0
290
     0
174
     0
 93
        1
 44
0.0
173
     0
291
     1
 45
0.0
1001
ACAD
1000
AcDbSavedByObjectVersion
1070
     0
  0
VISUALSTYLE
  5
65F1
102
{ACAD_XDICTIONARY
360
6AB8
102
}
102
{ACAD_REACTORS
330
65E8
102
}
330
65E8
100
AcDbVisualStyle
  2
Conceptual
 70
     9
 71
     3
 72
     2
 73
     0
 90
        0
 40
-0.6
 41
-30.0
 62
     5
 63
     7
 74
     2
 91
        2
 64
     7
 65
   257
 75
     1
175
     1
 42
179.0
 92
        8
 66
     7
 43
1.0
 76
     1
 77
     6
 78
     2
 67
     7
 79
     3
170
     0
171
     0
290
     0
174
     0
 93
        1
 44
0.0
173
     0
291
     0
 45
0.0
1001
ACAD
1000
AcDbSavedByObjectVersion
1070
     0
  0
VISUALSTYLE
  5
65F3
102
{ACAD_XDICTIONARY
360
6ABC
102
}
102
{ACAD_REACTORS
330
65E8
102
}
330
65E8
100
AcDbVisualStyle
  2
Dim
 70
    11
 71
     2
 72
     2
 73
     0
 90
        0
 40
-0.6
 41
-30.0
 62
     5
 63
     7
 74
     1
 91
        4
 64
     7
 65
   257
 75
     1
175
     1
 42
1.0
 92
        8
 66
     7
 43
1.0
 76
     1
 77
     6
 78
     2
 67
     7
 79
     5
170
     0
171
     0
290
     0
174
     0
 93
        1
 44
-50.0
173
     0
291
     1
 45
0.0
1001
ACAD
1000
AcDbSavedByObjectVersion
1070
     0
  0
VISUALSTYLE
  5
6600
102
{ACAD_XDICTIONARY
360
6AD6
102
}
102
{ACAD_REACTORS
330
65E8
102
}
330
65E8
100
AcDbVisualStyle
  2
EdgeColorOff
 70
    22
 71
     2
 72
     2
 73
     0
 90
        0
 40
-0.6
 41
-30.0
 62
     5
 63
     7
 74
     1
 91
        4
 64
     7
 65
   257
 75
     1
175
     1
 42
1.0
 92
        8
 66
     7
 43
1.0
 76
     1
 77
     6
 78
     2
 67
     7
 79
     5
170
     0
171
     0
290
     0
174
     0
 93
        1
 44
0.0
173
     0
291
     1
 45
0.0
1001
ACAD
1000
AcDbSavedByObjectVersion
1070
     0
  0
VISUALSTYLE
  5
65F7
102
{ACAD_XDICTIONARY
360
6AC4
102
}
102
{ACAD_REACTORS
330
65E8
102
}
330
65E8
100
AcDbVisualStyle
  2
Facepattern
 70
    15
 71
     2
 72
     2
 73
     0
 90
        0
 40
-0.6
 41
-30.0
 62
     5
 63
     7
 74
     1
 91
        4
 64
     7
 65
   257
 75
     1
175
     1
 42
1.0
 92
        8
 66
     7
 43
1.0
 76
     1
 77
     6
 78
     2
 67
     7
 79
     5
170
     0
171
     0
290
     0
174
     0
 93
        1
 44
0.0
173
     0
291
     1
 45
0.0
1001
ACAD
1000
AcDbSavedByObjectVersion
1070
     0
  0
VISUALSTYLE
  5
65E9
102
{ACAD_XDICTIONARY
360
6AA8
102
}
102
{ACAD_REACTORS
330
65E8
102
}
330
65E8
100
AcDbVisualStyle
  2
Flat
 70
     0
 71
     2
 72
     1
 73
     1
 90
        2
 40
-0.6
 41
30.0
 62
     5
 63
     7
 74
     0
 91
        0
 64
     7
 65
   257
 75
     1
175
     1
 42
1.0
 92
        8
 66
     7
 43
1.0
 76
     1
 77
     6
 78
     2
 67
     7
 79
     5
170
     0
171
     0
290
     0
174
     0
 93
       13
 44
0.0
173
     0
291
     1
 45
0.0
1001
ACAD
1000
AcDbSavedByObjectVersion
1070
     0
  0
VISUALSTYLE
  5
65EA
102
{ACAD_XDICTIONARY
360
6AAA
102
}
102
{ACAD_REACTORS
330
65E8
102
}
330
65E8
100
AcDbVisualStyle
  2
FlatWithEdges
 70
     1
 71
     2
 72
     1
 73
     1
 90
        2
 40
-0.6
 41
30.0
 62
     5
 63
     7
 74
     1
 91
        0
 64
     7
 65
   257
 75
     1
175
     1
 42
1.0
 92
        0
 66
   257
 43
1.0
 76
     1
 77
     6
 78
     2
 67
     7
 79
     5
170
     0
171
     0
290
     0
174
     0
 93
       13
 44
0.0
173
     0
291
     1
 45
0.0
1001
ACAD
1000
AcDbSavedByObjectVersion
1070
     0
  0
VISUALSTYLE
  5
65EB
102
{ACAD_XDICTIONARY
360
6AAC
102
}
102
{ACAD_REACTORS
330
65E8
102
}
330
65E8
100
AcDbVisualStyle
  2
Gouraud
 70
     2
 71
     2
 72
     2
 73
     1
 90
        2
 40
-0.6
 41
30.0
 62
     5
 63
     7
 74
     0
 91
        0
 64
     7
 65
   257
 75
     1
175
     1
 42
1.0
 92
        0
 66
     7
 43
1.0
 76
     1
 77
     6
 78
     2
 67
     7
 79
     5
170
     0
171
     0
290
     0
174
     0
 93
       13
 44
0.0
173
     0
291
     1
 45
0.0
1001
ACAD
1000
AcDbSavedByObjectVersion
1070
     0
  0
VISUALSTYLE
  5
65EC
102
{ACAD_XDICTIONARY
360
6AAE
102
}
102
{ACAD_REACTORS
330
65E8
102
}
330
65E8
100
AcDbVisualStyle
  2
GouraudWithEdges
 70
     3
 71
     2
 72
     2
 73
     1
 90
        2
 40
-0.6
 41
30.0
 62
     5
 63
     7
 74
     1
 91
        0
 64
     7
 65
   257
 75
     1
175
     1
 42
1.0
 92
        0
 66
   257
 43
1.0
 76
     1
 77
     6
 78
     2
 67
     7
 79
     5
170
     0
171
     0
290
     0
174
     0
 93
       13
 44
0.0
173
     0
291
     1
 45
0.0
1001
ACAD
1000
AcDbSavedByObjectVersion
1070
     0
  0
VISUALSTYLE
  5
65F0
102
{ACAD_XDICTIONARY
360
6AB6
102
}
102
{ACAD_REACTORS
330
65E8
102
}
330
65E8
100
AcDbVisualStyle
  2
Hidden
 70
     6
 71
     1
 72
     2
 73
     2
 90
        0
 40
-0.6
 41
-30.0
 62
     5
 63
     7
 74
     2
 91
        2
 64
     7
 65
   257
 75
     2
175
     1
 42
40.0
 92
        0
 66
   257
 43
1.0
 76
     1
 77
     6
 78
     2
 67
     7
 79
     3
170
     0
171
     0
290
     0
174
     0
 93
        1
 44
0.0
173
     0
291
     0
 45
0.0
1001
ACAD
1000
AcDbSavedByObjectVersion
1070
     0
  0
VISUALSTYLE
  5
65FE
102
{ACAD_XDICTIONARY
360
6AD2
102
}
102
{ACAD_REACTORS
330
65E8
102
}
330
65E8
100
AcDbVisualStyle
  2
JitterOff
 70
    20
 71
     2
 72
     2
 73
     0
 90
        0
 40
-0.6
 41
-30.0
 62
     5
 63
     7
 74
     1
 91
        4
 64
     7
 65
   257
 75
     1
175
     1
 42
1.0
 92
       10
 66
     7
 43
1.0
 76
     1
 77
     6
 78
     2
 67
     7
 79
     5
170
     0
171
     0
290
     0
174
     0
 93
        1
 44
0.0
173
     0
291
     1
 45
0.0
1001
ACAD
1000
AcDbSavedByObjectVersion
1070
     0
  0
VISUALSTYLE
  5
65F6
102
{ACAD_XDICTIONARY
360
6AC2
102
}
102
{ACAD_REACTORS
330
65E8
102
}
330
65E8
100
AcDbVisualStyle
  2
Linepattern
 70
    14
 71
     2
 72
     2
 73
     0
 90
        0
 40
-0.6
 41
-30.0
 62
     5
 63
     7
 74
     1
 91
        4
 64
     7
 65
   257
 75
     7
175
     7
 42
1.0
 92
        8
 66
     7
 43
1.0
 76
     1
 77
     6
 78
     2
 67
     7
 79
     5
170
     0
171
     0
290
     0
174
     0
 93
        1
 44
0.0
173
     0
291
     1
 45
0.0
1001
ACAD
1000
AcDbSavedByObjectVersion
1070
     0
  0
VISUALSTYLE
  5
65FF
102
{ACAD_XDICTIONARY
360
6AD4
102
}
102
{ACAD_REACTORS
330
65E8
102
}
330
65E8
100
AcDbVisualStyle
  2
OverhangOff
 70
    21
 71
     2
 72
     2
 73
     0
 90
        0
 40
-0.6
 41
-30.0
 62
     5
 63
     7
 74
     1
 91
        4
 64
     7
 65
   257
 75
     1
175
     1
 42
1.0
 92
        9
 66
     7
 43
1.0
 76
     1
 77
     6
 78
     2
 67
     7
 79
     5
170
     0
171
     0
290
     0
174
     0
 93
        1
 44
0.0
173
     0
291
     1
 45
0.0
1001
ACAD
1000
AcDbSavedByObjectVersion
1070
     0
  0
VISUALSTYLE
  5
65F2
102
{ACAD_XDICTIONARY
360
6ABA
102
}
102
{ACAD_REACTORS
330
65E8
102
}
330
65E8
100
AcDbVisualStyle
  2
Realistic
 70
     8
 71
     2
 72
     2
 73
     0
 90
        2
 40
-0.6
 41
30.0
 62
     5
 63
     7
 74
     0
 91
        0
 64
     7
 65
   257
 75
     1
175
     1
 42
1.0
 92
        8
 66
   257
 43
1.0
 76
     1
 77
     6
 78
     2
 67
     7
 79
     3
170
     0
171
     0
290
     0
174
     0
 93
       13
 44
0.0
173
     0
291
     0
 45
0.0
1001
ACAD
1000
AcDbSavedByObjectVersion
1070
     0
  0
VISUALSTYLE
  5
65FD
102
{ACAD_XDICTIONARY
360
6AD0
102
}
102
{ACAD_REACTORS
330
65E8
102
}
330
65E8
100
AcDbVisualStyle
  2
Shaded
 70
    27
 71
     2
 72
     2
 73
     1
 90
        2
 40
-0.6
 41
30.0
 62
     5
 63
     7
 74
     0
 91
        4
 64
     7
 65
   257
 75
     1
175
     1
 42
1.0
 92
        8
 66
   257
 43
1.0
 76
     1
 77
     6
 78
     2
 67
     8
 79
     3
170
     0
171
     0
290
     0
174
     0
 93
        5
 44
0.0
173
     0
291
     0
 45
0.0
1001
ACAD
1000
AcDbSavedByObjectVersion
1070
     0
  0
VISUALSTYLE
  5
65FC
102
{ACAD_XDICTIONARY
360
6ACE
102
}
102
{ACAD_REACTORS
330
65E8
102
}
330
65E8
100
AcDbVisualStyle
  2
Shaded with edges
 70
    26
 71
     2
 72
     2
 73
     1
 90
        2
 40
-0.6
 41
30.0
 62
     5
 63
     7
 74
     1
 91
       10
 64
     7
 65
   257
 75
     2
175
     1
 42
1.0
 92
        8
 66
   257
 43
1.0
 76
     1
 77
     6
 78
     2
 67
     7
 79
     3
170
     0
171
     0
290
     0
174
     0
 93
        5
 44
0.0
173
     0
291
     0
 45
0.0
1001
ACAD
1000
AcDbSavedByObjectVersion
1070
     0
  0
VISUALSTYLE
  5
65F9
102
{ACAD_XDICTIONARY
360
6AC8
102
}
102
{ACAD_REACTORS
330
65E8
102
}
330
65E8
100
AcDbVisualStyle
  2
Shades of Gray
 70
    23
 71
     2
 72
     2
 73
     3
 90
        0
 40
-0.6
 41
-30.0
 62
     5
 63
     7
 74
     2
 91
        2
 64
     7
 65
     7
 75
     1
175
     1
 42
40.0
 92
        8
 66
     7
 43
1.0
 76
     1
 77
     6
 78
     2
 67
     7
 79
     3
170
     0
171
     0
290
     0
174
     0
 93
        1
 44
0.0
173
     0
291
     0
 45
0.0
1001
ACAD
1000
AcDbSavedByObjectVersion
1070
     0
  0
VISUALSTYLE
  5
65FA
102
{ACAD_XDICTIONARY
360
6ACA
102
}
102
{ACAD_REACTORS
330
65E8
102
}
330
65E8
100
AcDbVisualStyle
  2
Sketchy
 70
    24
 71
     1
 72
     2
 73
     2
 90
        0
 40
-0.6
 41
-30.0
 62
     5
 63
     7
 74
     2
 91
        2
 64
     7
 65
     7
 75
     1
175
     1
 42
40.0
 92
       11
 66
     7
 43
1.0
 76
     1
 77
     6
 78
     2
 67
     7
 79
     6
170
     0
171
     0
290
     0
174
     0
 93
        1
 44
0.0
173
     0
291
     0
 45
0.0
1001
ACAD
1000
AcDbSavedByObjectVersion
1070
     0
  0
VISUALSTYLE
  5
65F5
102
{ACAD_XDICTIONARY
360
6AC0
102
}
102
{ACAD_REACTORS
330
65E8
102
}
330
65E8
100
AcDbVisualStyle
  2
Thicken
 70
    13
 71
     2
 72
     2
 73
     0
 90
        0
 40
-0.6
 41
-30.0
 62
     5
 63
     7
 74
     1
 91
        4
 64
     7
 65
   257
 75
     1
175
     1
 42
1.0
 92
       12
 66
     7
 43
1.0
 76
     1
 77
     6
 78
     2
 67
     7
 79
     5
170
     0
171
     0
290
     0
174
     0
 93
        1
 44
0.0
173
     0
291
     1
 45
0.0
1001
ACAD
1000
AcDbSavedByObjectVersion
1070
     0
  0
VISUALSTYLE
  5
65EF
102
{ACAD_XDICTIONARY
360
6AB4
102
}
102
{ACAD_REACTORS
330
65E8
102
}
330
65E8
100
AcDbVisualStyle
  2
Wireframe
 70
     5
 71
     0
 72
     2
 73
     0
 90
        0
 40
-0.6
 41
-30.0
 62
     5
 63
     7
 74
     1
 91
        4
 64
     7
 65
   257
 75
     1
175
     1
 42
1.0
 92
        0
 66
   257
 43
1.0
 76
     1
 77
     6
 78
     2
 67
     7
 79
     3
170
     0
171
     0
290
     0
174
     0
 93
        1
 44
0.0
173
     0
291
     0
 45
0.0
1001
ACAD
1000
AcDbSavedByObjectVersion
1070
     0
  0
VISUALSTYLE
  5
65FB
102
{ACAD_XDICTIONARY
360
6ACC
102
}
102
{ACAD_REACTORS
330
65E8
102
}
330
65E8
100
AcDbVisualStyle
  2
X-Ray
 70
    25
 71
     2
 72
     2
 73
     1
 90
        1
 40
0.5
 41
-30.0
 62
     5
 63
     7
 74
     1
 91
        0
 64
     7
 65
   257
 75
     1
175
     1
 42
1.0
 92
        8
 66
     7
 43
1.0
 76
     1
 77
     6
 78
     2
 67
     7
 79
     3
170
     0
171
     0
290
     0
174
     0
 93
       13
 44
0.0
173
     0
291
     0
 45
0.0
1001
ACAD
1000
AcDbSavedByObjectVersion
1070
     0
  0
DICTIONARYVAR
  5
6693
102
{ACAD_REACTORS
330
3E
102
}
330
3E
100
DictionaryVariables
280
     0
  1
1:1
  0
DICTIONARYVAR
  5
6692
102
{ACAD_REACTORS
330
3E
102
}
330
3E
100
DictionaryVariables
280
     0
  1
STANDARD
  0
DICTIONARYVAR
  5
6691
102
{ACAD_REACTORS
330
3E
102
}
330
3E
100
DictionaryVariables
280
     0
  1
STANDARD
  0
DICTIONARYVAR
  5
3F
102
{ACAD_REACTORS
330
3E
102
}
330
3E
100
DictionaryVariables
280
     0
  1
0
  0
DICTIONARYVAR
  5
6696
102
{ACAD_REACTORS
330
3E
102
}
330
3E
100
DictionaryVariables
280
     0
  1
1
  0
DICTIONARYVAR
  5
6695
102
{ACAD_REACTORS
330
3E
102
}
330
3E
100
DictionaryVariables
280
     0
  1
0
  0
DICTIONARYVAR
  5
6A8F
102
{ACAD_REACTORS
330
3E
102
}
330
3E
100
DictionaryVariables
280
     0
  1
1
  0
DICTIONARYVAR
  5
6A90
102
{ACAD_REACTORS
330
3E
102
}
330
3E
100
DictionaryVariables
280
     0
  1
15
  0
DICTIONARYVAR
  5
6A8E
102
{ACAD_REACTORS
330
3E
102
}
330
3E
100
DictionaryVariables
280
     0
  1
0
  0
DICTIONARYVAR
  5
6A8D
102
{ACAD_REACTORS
330
3E
102
}
330
3E
100
DictionaryVariables
280
     0
  1
0
  0
DICTIONARYVAR
  5
6694
102
{ACAD_REACTORS
330
3E
102
}
330
3E
100
DictionaryVariables
280
     0
  1
127
  0
DICTIONARYVAR
  5
6A9B
102
{ACAD_REACTORS
330
3E
102
}
330
3E
100
DictionaryVariables
280
     0
  1
2
  0
DICTIONARY
  5
6AA3
330
485F
100
AcDbDictionary
280
     1
281
     1
  3
ACAD_XREC_ROUNDTRIP
360
6AA4
  0
DICTIONARY
  5
6AA1
330
485E
100
AcDbDictionary
280
     1
281
     1
  3
ACAD_XREC_ROUNDTRIP
360
6AA2
  0
DICTIONARY
  5
65D9
330
65D8
100
AcDbDictionary
280
     1
281
     1
  3
ACAD_XREC_ROUNDTRIP
360
6AA6
  3
BUMPTILE
360
65DB
  3
DIFFUSETILE
360
65DA
  3
OPACITYTILE
360
65DE
  3
REFLECTIONTILE
360
65DD
  3
REFRACTIONTILE
360
65DF
  3
SPECULARTILE
360
65DC
  0
DICTIONARY
  5
65D1
330
65D0
100
AcDbDictionary
280
     1
281
     1
  3
ACAD_XREC_ROUNDTRIP
360
6AA5
  3
BUMPTILE
360
65D3
  3
DIFFUSETILE
360
65D2
  3
OPACITYTILE
360
65D6
  3
REFLECTIONTILE
360
65D5
  3
REFRACTIONTILE
360
65D7
  3
SPECULARTILE
360
65D4
  0
DICTIONARY
  5
65E1
330
65E0
100
AcDbDictionary
280
     1
281
     1
  3
ACAD_XREC_ROUNDTRIP
360
6AA7
  3
BUMPTILE
360
65E3
  3
DIFFUSETILE
360
65E2
  3
OPACITYTILE
360
65E6
  3
REFLECTIONTILE
360
65E5
  3
REFRACTIONTILE
360
65E7
  3
SPECULARTILE
360
65E4
  0
DICTIONARY
  5
6652
330
6603
100
AcDbDictionary
280
     1
281
     1
  3
ACAD_ROUNDTRIP_2008_TABLESTYLE_CELLSTYLEMAP
360
6A9C
  3
ACAD_XREC_ROUNDTRIP
360
6AD8
  0
DICTIONARY
  5
6AB2
330
65EE
100
AcDbDictionary
280
     1
281
     1
  3
ACAD_XREC_ROUNDTRIP
360
6AB3
  0
DICTIONARY
  5
6AD9
330
6A32
100
AcDbDictionary
280
     1
281
     1
  3
ACAD_XREC_ROUNDTRIP
360
6ADA
  0
DICTIONARY
  5
6ADB
330
6A33
100
AcDbDictionary
280
     1
281
     1
  3
ACAD_XREC_ROUNDTRIP
360
6ADC
  0
DICTIONARY
  5
6AB0
330
65ED
100
AcDbDictionary
280
     1
281
     1
  3
ACAD_XREC_ROUNDTRIP
360
6AB1
  0
DICTIONARY
  5
6ABE
330
65F4
100
AcDbDictionary
280
     1
281
     1
  3
ACAD_XREC_ROUNDTRIP
360
6ABF
  0
DICTIONARY
  5
6AC6
330
65F8
100
AcDbDictionary
280
     1
281
     1
  3
ACAD_XREC_ROUNDTRIP
360
6AC7
  0
DICTIONARY
  5
6AB8
330
65F1
100
AcDbDictionary
280
     1
281
     1
  3
ACAD_XREC_ROUNDTRIP
360
6AB9
  0
DICTIONARY
  5
6ABC
330
65F3
100
AcDbDictionary
280
     1
281
     1
  3
ACAD_XREC_ROUNDTRIP
360
6ABD
  0
DICTIONARY
  5
6AD6
330
6600
100
AcDbDictionary
280
     1
281
     1
  3
ACAD_XREC_ROUNDTRIP
360
6AD7
  0
DICTIONARY
  5
6AC4
330
65F7
100
AcDbDictionary
280
     1
281
     1
  3
ACAD_XREC_ROUNDTRIP
360
6AC5
  0
DICTIONARY
  5
6AA8
330
65E9
100
AcDbDictionary
280
     1
281
     1
  3
ACAD_XREC_ROUNDTRIP
360
6AA9
  0
DICTIONARY
  5
6AAA
330
65EA
100
AcDbDictionary
280
     1
281
     1
  3
ACAD_XREC_ROUNDTRIP
360
6AAB
  0
DICTIONARY
  5
6AAC
330
65EB
100
AcDbDictionary
280
     1
281
     1
  3
ACAD_XREC_ROUNDTRIP
360
6AAD
  0
DICTIONARY
  5
6AAE
330
65EC
100
AcDbDictionary
280
     1
281
     1
  3
ACAD_XREC_ROUNDTRIP
360
6AAF
  0
DICTIONARY
  5
6AB6
330
65F0
100
AcDbDictionary
280
     1
281
     1
  3
ACAD_XREC_ROUNDTRIP
360
6AB7
  0
DICTIONARY
  5
6AD2
330
65FE
100
AcDbDictionary
280
     1
281
     1
  3
ACAD_XREC_ROUNDTRIP
360
6AD3
  0
DICTIONARY
  5
6AC2
330
65F6
100
AcDbDictionary
280
     1
281
     1
  3
ACAD_XREC_ROUNDTRIP
360
6AC3
  0
DICTIONARY
  5
6AD4
330
65FF
100
AcDbDictionary
280
     1
281
     1
  3
ACAD_XREC_ROUNDTRIP
360
6AD5
  0
DICTIONARY
  5
6ABA
330
65F2
100
AcDbDictionary
280
     1
281
     1
  3
ACAD_XREC_ROUNDTRIP
360
6ABB
  0
DICTIONARY
  5
6AD0
330
65FD
100
AcDbDictionary
280
     1
281
     1
  3
ACAD_XREC_ROUNDTRIP
360
6AD1
  0
DICTIONARY
  5
6ACE
330
65FC
100
AcDbDictionary
280
     1
281
     1
  3
ACAD_XREC_ROUNDTRIP
360
6ACF
  0
DICTIONARY
  5
6AC8
330
65F9
100
AcDbDictionary
280
     1
281
     1
  3
ACAD_XREC_ROUNDTRIP
360
6AC9
  0
DICTIONARY
  5
6ACA
330
65FA
100
AcDbDictionary
280
     1
281
     1
  3
ACAD_XREC_ROUNDTRIP
360
6ACB
  0
DICTIONARY
  5
6AC0
330
65F5
100
AcDbDictionary
280
     1
281
     1
  3
ACAD_XREC_ROUNDTRIP
360
6AC1
  0
DICTIONARY
  5
6AB4
330
65EF
100
AcDbDictionary
280
     1
281
     1
  3
ACAD_XREC_ROUNDTRIP
360
6AB5
  0
DICTIONARY
  5
6ACC
330
65FB
100
AcDbDictionary
280
     1
281
     1
  3
ACAD_XREC_ROUNDTRIP
360
6ACD
  0
XRECORD
  5
6AA4
102
{ACAD_REACTORS
330
6AA3
102
}
330
6AA3
100
AcDbXrecord
280
     1
102
SHADEPLOT
 70
     0
102
SHADEPLOTRESLEVEL
 70
     2
102
SHADEPLOTCUSTOMDPI
 70
   300
  0
XRECORD
  5
6AA2
102
{ACAD_REACTORS
330
6AA1
102
}
330
6AA1
100
AcDbXrecord
280
     1
102
SHADEPLOT
 70
     0
102
SHADEPLOTRESLEVEL
 70
     2
102
SHADEPLOTCUSTOMDPI
 70
   300
  0
XRECORD
  5
6AA6
102
{ACAD_REACTORS
330
65D9
102
}
330
65D9
100
AcDbXrecord
280
     1
102
MATERIAL
148
0.0
149
0.0
149
0.0
 93
        0
 94
      127
282
     0
 72
     0
 77
     0
171
     0
175
     0
179
     0
273
     0
  0
XRECORD
  5
65DB
102
{ACAD_REACTORS
330
65D9
102
}
330
65D9
100
AcDbXrecord
280
     1
270
     1
271
     1
  0
XRECORD
  5
65DA
102
{ACAD_REACTORS
330
65D9
102
}
330
65D9
100
AcDbXrecord
280
     1
270
     1
271
     1
  0
XRECORD
  5
65DE
102
{ACAD_REACTORS
330
65D9
102
}
330
65D9
100
AcDbXrecord
280
     1
270
     1
271
     1
  0
XRECORD
  5
65DD
102
{ACAD_REACTORS
330
65D9
102
}
330
65D9
100
AcDbXrecord
280
     1
270
     1
271
     1
  0
XRECORD
  5
65DF
102
{ACAD_REACTORS
330
65D9
102
}
330
65D9
100
AcDbXrecord
280
     1
270
     1
271
     1
  0
XRECORD
  5
65DC
102
{ACAD_REACTORS
330
65D9
102
}
330
65D9
100
AcDbXrecord
280
     1
270
     1
271
     1
  0
XRECORD
  5
6AA5
102
{ACAD_REACTORS
330
65D1
102
}
330
65D1
100
AcDbXrecord
280
     1
102
MATERIAL
148
0.0
149
0.0
149
0.0
 93
        0
 94
      127
282
     0
 72
     0
 77
     0
171
     0
175
     0
179
     0
273
     0
  0
XRECORD
  5
65D3
102
{ACAD_REACTORS
330
65D1
102
}
330
65D1
100
AcDbXrecord
280
     1
270
     1
271
     1
  0
XRECORD
  5
65D2
102
{ACAD_REACTORS
330
65D1
102
}
330
65D1
100
AcDbXrecord
280
     1
270
     1
271
     1
  0
XRECORD
  5
65D6
102
{ACAD_REACTORS
330
65D1
102
}
330
65D1
100
AcDbXrecord
280
     1
270
     1
271
     1
  0
XRECORD
  5
65D5
102
{ACAD_REACTORS
330
65D1
102
}
330
65D1
100
AcDbXrecord
280
     1
270
     1
271
     1
  0
XRECORD
  5
65D7
102
{ACAD_REACTORS
330
65D1
102
}
330
65D1
100
AcDbXrecord
280
     1
270
     1
271
     1
  0
XRECORD
  5
65D4
102
{ACAD_REACTORS
330
65D1
102
}
330
65D1
100
AcDbXrecord
280
     1
270
     1
271
     1
  0
XRECORD
  5
6AA7
102
{ACAD_REACTORS
330
65E1
102
}
330
65E1
100
AcDbXrecord
280
     1
102
MATERIAL
148
0.0
149
0.0
149
0.0
 93
        0
 94
      127
282
     0
 72
     0
 77
     0
171
     0
175
     0
179
     0
273
     0
  0
XRECORD
  5
65E3
102
{ACAD_REACTORS
330
65E1
102
}
330
65E1
100
AcDbXrecord
280
     1
270
     1
271
     1
  0
XRECORD
  5
65E2
102
{ACAD_REACTORS
330
65E1
102
}
330
65E1
100
AcDbXrecord
280
     1
270
     1
271
     1
  0
XRECORD
  5
65E6
102
{ACAD_REACTORS
330
65E1
102
}
330
65E1
100
AcDbXrecord
280
     1
270
     1
271
     1
  0
XRECORD
  5
65E5
102
{ACAD_REACTORS
330
65E1
102
}
330
65E1
100
AcDbXrecord
280
     1
270
     1
271
     1
  0
XRECORD
  5
65E7
102
{ACAD_REACTORS
330
65E1
102
}
330
65E1
100
AcDbXrecord
280
     1
270
     1
271
     1
  0
XRECORD
  5
65E4
102
{ACAD_REACTORS
330
65E1
102
}
330
65E1
100
AcDbXrecord
280
     1
270
     1
271
     1
  0
CELLSTYLEMAP
  5
6A9C
102
{ACAD_REACTORS
330
6652
102
}
330
6652
100
AcDbCellStyleMap
 90
        3
300
CELLSTYLE
  1
TABLEFORMAT_BEGIN
 90
        5
170
     1
 91
        0
 92
    32768
 62
   257
 93
        1
300
CONTENTFORMAT
  1
CONTENTFORMAT_BEGIN
 90
        0
 91
        0
 92
      512
 93
        0
300

 40
0.0
140
1.0
 94
        5
 62
     0
340
F
144
0.25
309
CONTENTFORMAT_END
171
     0
 94
        0
309
TABLEFORMAT_END
  1
CELLSTYLE_BEGIN
 90
        1
 91
        1
300
_TITLE
309
CELLSTYLE_END
300
CELLSTYLE
  1
TABLEFORMAT_BEGIN
 90
        5
170
     1
 91
        0
 92
        0
 62
   257
 93
        1
300
CONTENTFORMAT
  1
CONTENTFORMAT_BEGIN
 90
        0
 91
        0
 92
      512
 93
        0
300

 40
0.0
140
1.0
 94
        5
 62
     0
340
F
144
0.18
309
CONTENTFORMAT_END
171
     0
 94
        0
309
TABLEFORMAT_END
  1
CELLSTYLE_BEGIN
 90
        2
 91
        1
300
_HEADER
309
CELLSTYLE_END
300
CELLSTYLE
  1
TABLEFORMAT_BEGIN
 90
        5
170
     1
 91
        0
 92
        0
 62
   257
 93
        1
300
CONTENTFORMAT
  1
CONTENTFORMAT_BEGIN
 90
        0
 91
        0
 92
      512
 93
        0
300

 40
0.0
140
1.0
 94
        2
 62
     0
340
F
144
0.18
309
CONTENTFORMAT_END
171
     0
 94
        0
309
TABLEFORMAT_END
  1
CELLSTYLE_BEGIN
 90
        3
 91
        2
300
_DATA
309
CELLSTYLE_END
  0
XRECORD
  5
6AD8
102
{ACAD_REACTORS
330
6652
102
}
330
6652
100
AcDbXrecord
280
     1
102
ACAD_ROUNDTRIP_PRE2007_TABLESTYLE
 90
      512
 91
        0
  1

 92
      512
 93
        0
  2

 94
      512
 95
        0
  3

  0
XRECORD
  5
6AB3
102
{ACAD_REACTORS
330
6AB2
102
}
330
6AB2
100
AcDbXrecord
280
     1
102
RTVSPropertyOp0
 70
     1
102
RTVSPropertyOp1
 70
     1
102
RTVSPropertyOp2
 70
     1
102
RTVSPropertyOp3
 70
     1
102
RTVSPropertyOp4
 70
     1
102
RTVSPropertyOp5
 70
     1
102
RTVSPropertyOp6
 70
     1
102
RTVSPropertyOp7
 70
     1
102
RTVSPropertyOp8
 70
     1
102
RTVSPropertyOp9
 70
     1
102
RTVSPropertyOp10
 70
     1
102
RTVSPropertyOp11
 70
     1
102
RTVSPropertyOp12
 70
     1
102
RTVSPropertyOp13
 70
     1
102
RTVSPropertyOp14
 70
     1
102
RTVSPropertyOp15
 70
     1
102
RTVSPropertyOp16
 70
     1
102
RTVSPropertyOp17
 70
     1
102
RTVSPropertyOp18
 70
     1
102
RTVSPropertyOp19
 70
     1
102
RTVSPropertyOp20
 70
     1
102
RTVSPropertyOp21
 70
     1
102
RTVSPropertyOp22
 70
     1
102
RTVSPropertyOp23
 70
     1
102
RTVSPropertyOp24
 70
     1
102
RTVSPropertyOp25
 70
     1
102
RTVSPropertyOp26
 70
     1
102
RTVSPropertyOp27
 70
     1
102
RTVSPropertyOp28
 70
     1
102
RTVSPropertyOp29
 70
     1
102
RTVSPropertyOp30
 70
     1
102
RTVSPropertyOp31
 70
     1
102
RTVSPropertyOp32
 70
     1
  0
XRECORD
  5
6ADA
102
{ACAD_REACTORS
330
6AD9
102
}
330
6AD9
100
AcDbXrecord
280
     1
102
RTVSPropertyOp0
 70
     1
102
RTVSPropertyOp1
 70
     1
102
RTVSPropertyOp2
 70
     1
102
RTVSPropertyOp3
 70
     1
102
RTVSPropertyOp4
 70
     1
102
RTVSPropertyOp5
 70
     1
102
RTVSPropertyOp6
 70
     1
102
RTVSPropertyOp7
 70
     1
102
RTVSPropertyOp8
 70
     1
102
RTVSPropertyOp9
 70
     1
102
RTVSPropertyOp10
 70
     1
102
RTVSPropertyOp11
 70
     1
102
RTVSPropertyOp12
 70
     1
102
RTVSPropertyOp13
 70
     1
102
RTVSPropertyOp14
 70
     1
102
RTVSPropertyOp15
 70
     1
102
RTVSPropertyOp16
 70
     1
102
RTVSPropertyOp17
 70
     1
102
RTVSPropertyOp18
 70
     1
102
RTVSPropertyOp19
 70
     1
102
RTVSPropertyOp20
 70
     1
102
RTVSPropertyOp21
 70
     1
102
RTVSPropertyOp22
 70
     1
102
RTVSPropertyOp23
 70
     1
102
RTVSPropertyOp24
 70
     1
102
RTVSPropertyOp25
 70
     1
102
RTVSPropertyOp26
 70
     1
102
RTVSPropertyOp27
 70
     1
102
RTVSPropertyOp28
 70
     1
102
RTVSPropertyOp29
 70
     1
102
RTVSPropertyOp30
 70
     1
102
RTVSPropertyOp31
 70
     1
102
RTVSPropertyOp32
 70
     1
  0
XRECORD
  5
6ADC
102
{ACAD_REACTORS
330
6ADB
102
}
330
6ADB
100
AcDbXrecord
280
     1
102
RTVSPropertyOp0
 70
     1
102
RTVSPropertyOp1
 70
     1
102
RTVSPropertyOp2
 70
     1
102
RTVSPropertyOp3
 70
     1
102
RTVSPropertyOp4
 70
     1
102
RTVSPropertyOp5
 70
     1
102
RTVSPropertyOp6
 70
     1
102
RTVSPropertyOp7
 70
     1
102
RTVSPropertyOp8
 70
     1
102
RTVSPropertyOp9
 70
     1
102
RTVSPropertyOp10
 70
     1
102
RTVSPropertyOp11
 70
     1
102
RTVSPropertyOp12
 70
     1
102
RTVSPropertyOp13
 70
     1
102
RTVSPropertyOp14
 70
     1
102
RTVSPropertyOp15
 70
     1
102
RTVSPropertyOp16
 70
     1
102
RTVSPropertyOp17
 70
     1
102
RTVSPropertyOp18
 70
     1
102
RTVSPropertyOp19
 70
     1
102
RTVSPropertyOp20
 70
     1
102
RTVSPropertyOp21
 70
     1
102
RTVSPropertyOp22
 70
     1
102
RTVSPropertyOp23
 70
     1
102
RTVSPropertyOp24
 70
     1
102
RTVSPropertyOp25
 70
     1
102
RTVSPropertyOp26
 70
     1
102
RTVSPropertyOp27
 70
     1
102
RTVSPropertyOp28
 70
     1
102
RTVSPropertyOp29
 70
     1
102
RTVSPropertyOp30
 70
     1
102
RTVSPropertyOp31
 70
     1
102
RTVSPropertyOp32
 70
     1
  0
XRECORD
  5
6AB1
102
{ACAD_REACTORS
330
6AB0
102
}
330
6AB0
100
AcDbXrecord
280
     1
102
RTVSPropertyOp0
 70
     1
102
RTVSPropertyOp1
 70
     1
102
RTVSPropertyOp2
 70
     1
102
RTVSPropertyOp3
 70
     1
102
RTVSPropertyOp4
 70
     1
102
RTVSPropertyOp5
 70
     1
102
RTVSPropertyOp6
 70
     1
102
RTVSPropertyOp7
 70
     1
102
RTVSPropertyOp8
 70
     1
102
RTVSPropertyOp9
 70
     1
102
RTVSPropertyOp10
 70
     1
102
RTVSPropertyOp11
 70
     1
102
RTVSPropertyOp12
 70
     1
102
RTVSPropertyOp13
 70
     1
102
RTVSPropertyOp14
 70
     1
102
RTVSPropertyOp15
 70
     1
102
RTVSPropertyOp16
 70
     1
102
RTVSPropertyOp17
 70
     1
102
RTVSPropertyOp18
 70
     1
102
RTVSPropertyOp19
 70
     1
102
RTVSPropertyOp20
 70
     1
102
RTVSPropertyOp21
 70
     1
102
RTVSPropertyOp22
 70
     1
102
RTVSPropertyOp23
 70
     1
102
RTVSPropertyOp24
 70
     1
102
RTVSPropertyOp25
 70
     1
102
RTVSPropertyOp26
 70
     1
102
RTVSPropertyOp27
 70
     1
102
RTVSPropertyOp28
 70
     1
102
RTVSPropertyOp29
 70
     1
102
RTVSPropertyOp30
 70
     1
102
RTVSPropertyOp31
 70
     1
102
RTVSPropertyOp32
 70
     1
  0
XRECORD
  5
6ABF
102
{ACAD_REACTORS
330
6ABE
102
}
330
6ABE
100
AcDbXrecord
280
     1
102
RTVSPropertyOp0
 70
     1
102
RTVSPropertyOp1
 70
     1
102
RTVSPropertyOp2
 70
     1
102
RTVSPropertyOp3
 70
     1
102
RTVSPropertyOp4
 70
     1
102
RTVSPropertyOp5
 70
     1
102
RTVSPropertyOp6
 70
     1
102
RTVSPropertyOp7
 70
     1
102
RTVSPropertyOp8
 70
     1
102
RTVSPropertyOp9
 70
     1
102
RTVSPropertyOp10
 70
     1
102
RTVSPropertyOp11
 70
     1
102
RTVSPropertyOp12
 70
     1
102
RTVSPropertyOp13
 70
     1
102
RTVSPropertyOp14
 70
     1
102
RTVSPropertyOp15
 70
     1
102
RTVSPropertyOp16
 70
     1
102
RTVSPropertyOp17
 70
     1
102
RTVSPropertyOp18
 70
     1
102
RTVSPropertyOp19
 70
     1
102
RTVSPropertyOp20
 70
     1
102
RTVSPropertyOp21
 70
     1
102
RTVSPropertyOp22
 70
     1
102
RTVSPropertyOp23
 70
     1
102
RTVSPropertyOp24
 70
     1
102
RTVSPropertyOp25
 70
     1
102
RTVSPropertyOp26
 70
     1
102
RTVSPropertyOp27
 70
     1
102
RTVSPropertyOp28
 70
     1
102
RTVSPropertyOp29
 70
     1
102
RTVSPropertyOp30
 70
     1
102
RTVSPropertyOp31
 70
     1
102
RTVSPropertyOp32
 70
     1
  0
XRECORD
  5
6AC7
102
{ACAD_REACTORS
330
6AC6
102
}
330
6AC6
100
AcDbXrecord
280
     1
102
RTVSPropertyOp0
 70
     1
102
RTVSPropertyOp1
 70
     1
102
RTVSPropertyOp2
 70
     1
102
RTVSPropertyOp3
 70
     1
102
RTVSPropertyOp4
 70
     1
102
RTVSPropertyOp5
 70
     1
102
RTVSPropertyOp6
 70
     1
102
RTVSPropertyOp7
 70
     1
102
RTVSPropertyOp8
 70
     1
102
RTVSPropertyOp9
 70
     1
102
RTVSPropertyOp10
 70
     1
102
RTVSPropertyOp11
 70
     1
102
RTVSPropertyOp12
 70
     1
102
RTVSPropertyOp13
 70
     1
102
RTVSPropertyOp14
 70
     1
102
RTVSPropertyOp15
 70
     1
102
RTVSPropertyOp16
 70
     1
102
RTVSPropertyOp17
 70
     1
102
RTVSPropertyOp18
 70
     1
102
RTVSPropertyOp19
 70
     1
102
RTVSPropertyOp20
 70
     1
102
RTVSPropertyOp21
 70
     1
102
RTVSPropertyOp22
 70
     1
102
RTVSPropertyOp23
 70
     1
102
RTVSPropertyOp24
 70
     1
102
RTVSPropertyOp25
 70
     1
102
RTVSPropertyOp26
 70
     1
102
RTVSPropertyOp27
 70
     1
102
RTVSPropertyOp28
 70
     1
102
RTVSPropertyOp29
 70
     1
102
RTVSPropertyOp30
 70
     1
102
RTVSPropertyOp31
 70
     1
102
RTVSPropertyOp32
 70
     1
  0
XRECORD
  5
6AB9
102
{ACAD_REACTORS
330
6AB8
102
}
330
6AB8
100
AcDbXrecord
280
     1
102
RTVSPropertyOp0
 70
     1
102
RTVSPropertyOp1
 70
     1
102
RTVSPropertyOp2
 70
     1
102
RTVSPropertyOp3
 70
     1
102
RTVSPropertyOp4
 70
     1
102
RTVSPropertyOp5
 70
     1
102
RTVSPropertyOp6
 70
     1
102
RTVSPropertyOp7
 70
     1
102
RTVSPropertyOp8
 70
     1
102
RTVSPropertyOp9
 70
     1
102
RTVSPropertyOp10
 70
     1
102
RTVSPropertyOp11
 70
     1
102
RTVSPropertyOp12
 70
     1
102
RTVSPropertyOp13
 70
     1
102
RTVSPropertyOp14
 70
     1
102
RTVSPropertyOp15
 70
     1
102
RTVSPropertyOp16
 70
     1
102
RTVSPropertyOp17
 70
     1
102
RTVSPropertyOp18
 70
     1
102
RTVSPropertyOp19
 70
     1
102
RTVSPropertyOp20
 70
     1
102
RTVSPropertyOp21
 70
     1
102
RTVSPropertyOp22
 70
     1
102
RTVSPropertyOp23
 70
     1
102
RTVSPropertyOp24
 70
     1
102
RTVSPropertyOp25
 70
     1
102
RTVSPropertyOp26
 70
     1
102
RTVSPropertyOp27
 70
     1
102
RTVSPropertyOp28
 70
     1
102
RTVSPropertyOp29
 70
     1
102
RTVSPropertyOp30
 70
     1
102
RTVSPropertyOp31
 70
     1
102
RTVSPropertyOp32
 70
     1
  0
XRECORD
  5
6ABD
102
{ACAD_REACTORS
330
6ABC
102
}
330
6ABC
100
AcDbXrecord
280
     1
102
RTVSPropertyOp0
 70
     1
102
RTVSPropertyOp1
 70
     1
102
RTVSPropertyOp2
 70
     1
102
RTVSPropertyOp3
 70
     1
102
RTVSPropertyOp4
 70
     1
102
RTVSPropertyOp5
 70
     1
102
RTVSPropertyOp6
 70
     1
102
RTVSPropertyOp7
 70
     1
102
RTVSPropertyOp8
 70
     1
102
RTVSPropertyOp9
 70
     1
102
RTVSPropertyOp10
 70
     1
102
RTVSPropertyOp11
 70
     1
102
RTVSPropertyOp12
 70
     1
102
RTVSPropertyOp13
 70
     1
102
RTVSPropertyOp14
 70
     1
102
RTVSPropertyOp15
 70
     1
102
RTVSPropertyOp16
 70
     1
102
RTVSPropertyOp17
 70
     1
102
RTVSPropertyOp18
 70
     1
102
RTVSPropertyOp19
 70
     1
102
RTVSPropertyOp20
 70
     1
102
RTVSPropertyOp21
 70
     1
102
RTVSPropertyOp22
 70
     1
102
RTVSPropertyOp23
 70
     1
102
RTVSPropertyOp24
 70
     1
102
RTVSPropertyOp25
 70
     1
102
RTVSPropertyOp26
 70
     1
102
RTVSPropertyOp27
 70
     1
102
RTVSPropertyOp28
 70
     1
102
RTVSPropertyOp29
 70
     1
102
RTVSPropertyOp30
 70
     1
102
RTVSPropertyOp31
 70
     1
102
RTVSPropertyOp32
 70
     1
  0
XRECORD
  5
6AD7
102
{ACAD_REACTORS
330
6AD6
102
}
330
6AD6
100
AcDbXrecord
280
     1
102
RTVSPropertyOp0
 70
     0
102
RTVSPropertyOp1
 70
     0
102
RTVSPropertyOp2
 70
     0
102
RTVSPropertyOp3
 70
     0
102
RTVSPropertyOp4
 70
     0
102
RTVSPropertyOp5
 70
     0
102
RTVSPropertyOp6
 70
     0
102
RTVSPropertyOp7
 70
     0
102
RTVSPropertyOp8
 70
     0
102
RTVSPropertyOp9
 70
     0
102
RTVSPropertyOp10
 70
     0
102
RTVSPropertyOp11
 70
     0
102
RTVSPropertyOp12
 70
     0
102
RTVSPropertyOp13
 70
     0
102
RTVSPropertyOp14
 70
     2
102
RTVSPropertyOp15
 70
     0
102
RTVSPropertyOp16
 70
     0
102
RTVSPropertyOp17
 70
     0
102
RTVSPropertyOp18
 70
     0
102
RTVSPropertyOp19
 70
     0
102
RTVSPropertyOp20
 70
     0
102
RTVSPropertyOp21
 70
     0
102
RTVSPropertyOp22
 70
     0
102
RTVSPropertyOp23
 70
     0
102
RTVSPropertyOp24
 70
     0
102
RTVSPropertyOp25
 70
     0
102
RTVSPropertyOp26
 70
     0
102
RTVSPropertyOp27
 70
     0
102
RTVSPropertyOp28
 70
     1
102
RTVSPropertyOp29
 70
     1
102
RTVSPropertyOp30
 70
     1
102
RTVSPropertyOp31
 70
     1
102
RTVSPropertyOp32
 70
     1
  0
XRECORD
  5
6AC5
102
{ACAD_REACTORS
330
6AC4
102
}
330
6AC4
100
AcDbXrecord
280
     1
102
RTVSPropertyOp0
 70
     1
102
RTVSPropertyOp1
 70
     1
102
RTVSPropertyOp2
 70
     1
102
RTVSPropertyOp3
 70
     1
102
RTVSPropertyOp4
 70
     1
102
RTVSPropertyOp5
 70
     1
102
RTVSPropertyOp6
 70
     1
102
RTVSPropertyOp7
 70
     1
102
RTVSPropertyOp8
 70
     1
102
RTVSPropertyOp9
 70
     1
102
RTVSPropertyOp10
 70
     1
102
RTVSPropertyOp11
 70
     1
102
RTVSPropertyOp12
 70
     1
102
RTVSPropertyOp13
 70
     1
102
RTVSPropertyOp14
 70
     1
102
RTVSPropertyOp15
 70
     1
102
RTVSPropertyOp16
 70
     1
102
RTVSPropertyOp17
 70
     1
102
RTVSPropertyOp18
 70
     1
102
RTVSPropertyOp19
 70
     1
102
RTVSPropertyOp20
 70
     1
102
RTVSPropertyOp21
 70
     1
102
RTVSPropertyOp22
 70
     1
102
RTVSPropertyOp23
 70
     1
102
RTVSPropertyOp24
 70
     1
102
RTVSPropertyOp25
 70
     1
102
RTVSPropertyOp26
 70
     1
102
RTVSPropertyOp27
 70
     1
102
RTVSPropertyOp28
 70
     1
102
RTVSPropertyOp29
 70
     1
102
RTVSPropertyOp30
 70
     1
102
RTVSPropertyOp31
 70
     1
102
RTVSPropertyOp32
 70
     1
  0
XRECORD
  5
6AA9
102
{ACAD_REACTORS
330
6AA8
102
}
330
6AA8
100
AcDbXrecord
280
     1
102
RTVSPropertyOp0
 70
     1
102
RTVSPropertyOp1
 70
     1
102
RTVSPropertyOp2
 70
     1
102
RTVSPropertyOp3
 70
     1
102
RTVSPropertyOp4
 70
     1
102
RTVSPropertyOp5
 70
     1
102
RTVSPropertyOp6
 70
     1
102
RTVSPropertyOp7
 70
     1
102
RTVSPropertyOp8
 70
     1
102
RTVSPropertyOp9
 70
     1
102
RTVSPropertyOp10
 70
     1
102
RTVSPropertyOp11
 70
     1
102
RTVSPropertyOp12
 70
     1
102
RTVSPropertyOp13
 70
     1
102
RTVSPropertyOp14
 70
     1
102
RTVSPropertyOp15
 70
     1
102
RTVSPropertyOp16
 70
     1
102
RTVSPropertyOp17
 70
     1
102
RTVSPropertyOp18
 70
     1
102
RTVSPropertyOp19
 70
     1
102
RTVSPropertyOp20
 70
     1
102
RTVSPropertyOp21
 70
     1
102
RTVSPropertyOp22
 70
     1
102
RTVSPropertyOp23
 70
     1
102
RTVSPropertyOp24
 70
     1
102
RTVSPropertyOp25
 70
     1
102
RTVSPropertyOp26
 70
     1
102
RTVSPropertyOp27
 70
     1
102
RTVSPropertyOp28
 70
     1
102
RTVSPropertyOp29
 70
     1
102
RTVSPropertyOp30
 70
     1
102
RTVSPropertyOp31
 70
     1
102
RTVSPropertyOp32
 70
     1
  0
XRECORD
  5
6AAB
102
{ACAD_REACTORS
330
6AAA
102
}
330
6AAA
100
AcDbXrecord
280
     1
102
RTVSPropertyOp0
 70
     1
102
RTVSPropertyOp1
 70
     1
102
RTVSPropertyOp2
 70
     1
102
RTVSPropertyOp3
 70
     1
102
RTVSPropertyOp4
 70
     1
102
RTVSPropertyOp5
 70
     1
102
RTVSPropertyOp6
 70
     1
102
RTVSPropertyOp7
 70
     1
102
RTVSPropertyOp8
 70
     1
102
RTVSPropertyOp9
 70
     1
102
RTVSPropertyOp10
 70
     1
102
RTVSPropertyOp11
 70
     1
102
RTVSPropertyOp12
 70
     1
102
RTVSPropertyOp13
 70
     1
102
RTVSPropertyOp14
 70
     1
102
RTVSPropertyOp15
 70
     1
102
RTVSPropertyOp16
 70
     1
102
RTVSPropertyOp17
 70
     1
102
RTVSPropertyOp18
 70
     1
102
RTVSPropertyOp19
 70
     1
102
RTVSPropertyOp20
 70
     1
102
RTVSPropertyOp21
 70
     1
102
RTVSPropertyOp22
 70
     1
102
RTVSPropertyOp23
 70
     1
102
RTVSPropertyOp24
 70
     1
102
RTVSPropertyOp25
 70
     1
102
RTVSPropertyOp26
 70
     1
102
RTVSPropertyOp27
 70
     1
102
RTVSPropertyOp28
 70
     1
102
RTVSPropertyOp29
 70
     1
102
RTVSPropertyOp30
 70
     1
102
RTVSPropertyOp31
 70
     1
102
RTVSPropertyOp32
 70
     1
  0
XRECORD
  5
6AAD
102
{ACAD_REACTORS
330
6AAC
102
}
330
6AAC
100
AcDbXrecord
280
     1
102
RTVSPropertyOp0
 70
     1
102
RTVSPropertyOp1
 70
     1
102
RTVSPropertyOp2
 70
     1
102
RTVSPropertyOp3
 70
     1
102
RTVSPropertyOp4
 70
     1
102
RTVSPropertyOp5
 70
     1
102
RTVSPropertyOp6
 70
     1
102
RTVSPropertyOp7
 70
     1
102
RTVSPropertyOp8
 70
     1
102
RTVSPropertyOp9
 70
     1
102
RTVSPropertyOp10
 70
     1
102
RTVSPropertyOp11
 70
     1
102
RTVSPropertyOp12
 70
     1
102
RTVSPropertyOp13
 70
     1
102
RTVSPropertyOp14
 70
     1
102
RTVSPropertyOp15
 70
     1
102
RTVSPropertyOp16
 70
     1
102
RTVSPropertyOp17
 70
     1
102
RTVSPropertyOp18
 70
     1
102
RTVSPropertyOp19
 70
     1
102
RTVSPropertyOp20
 70
     1
102
RTVSPropertyOp21
 70
     1
102
RTVSPropertyOp22
 70
     1
102
RTVSPropertyOp23
 70
     1
102
RTVSPropertyOp24
 70
     1
102
RTVSPropertyOp25
 70
     1
102
RTVSPropertyOp26
 70
     1
102
RTVSPropertyOp27
 70
     1
102
RTVSPropertyOp28
 70
     1
102
RTVSPropertyOp29
 70
     1
102
RTVSPropertyOp30
 70
     1
102
RTVSPropertyOp31
 70
     1
102
RTVSPropertyOp32
 70
     1
  0
XRECORD
  5
6AAF
102
{ACAD_REACTORS
330
6AAE
102
}
330
6AAE
100
AcDbXrecord
280
     1
102
RTVSPropertyOp0
 70
     1
102
RTVSPropertyOp1
 70
     1
102
RTVSPropertyOp2
 70
     1
102
RTVSPropertyOp3
 70
     1
102
RTVSPropertyOp4
 70
     1
102
RTVSPropertyOp5
 70
     1
102
RTVSPropertyOp6
 70
     1
102
RTVSPropertyOp7
 70
     1
102
RTVSPropertyOp8
 70
     1
102
RTVSPropertyOp9
 70
     1
102
RTVSPropertyOp10
 70
     1
102
RTVSPropertyOp11
 70
     1
102
RTVSPropertyOp12
 70
     1
102
RTVSPropertyOp13
 70
     1
102
RTVSPropertyOp14
 70
     1
102
RTVSPropertyOp15
 70
     1
102
RTVSPropertyOp16
 70
     1
102
RTVSPropertyOp17
 70
     1
102
RTVSPropertyOp18
 70
     1
102
RTVSPropertyOp19
 70
     1
102
RTVSPropertyOp20
 70
     1
102
RTVSPropertyOp21
 70
     1
102
RTVSPropertyOp22
 70
     1
102
RTVSPropertyOp23
 70
     1
102
RTVSPropertyOp24
 70
     1
102
RTVSPropertyOp25
 70
     1
102
RTVSPropertyOp26
 70
     1
102
RTVSPropertyOp27
 70
     1
102
RTVSPropertyOp28
 70
     1
102
RTVSPropertyOp29
 70
     1
102
RTVSPropertyOp30
 70
     1
102
RTVSPropertyOp31
 70
     1
102
RTVSPropertyOp32
 70
     1
  0
XRECORD
  5
6AB7
102
{ACAD_REACTORS
330
6AB6
102
}
330
6AB6
100
AcDbXrecord
280
     1
102
RTVSPropertyOp0
 70
     1
102
RTVSPropertyOp1
 70
     1
102
RTVSPropertyOp2
 70
     1
102
RTVSPropertyOp3
 70
     1
102
RTVSPropertyOp4
 70
     1
102
RTVSPropertyOp5
 70
     1
102
RTVSPropertyOp6
 70
     1
102
RTVSPropertyOp7
 70
     1
102
RTVSPropertyOp8
 70
     1
102
RTVSPropertyOp9
 70
     1
102
RTVSPropertyOp10
 70
     1
102
RTVSPropertyOp11
 70
     1
102
RTVSPropertyOp12
 70
     1
102
RTVSPropertyOp13
 70
     1
102
RTVSPropertyOp14
 70
     1
102
RTVSPropertyOp15
 70
     1
102
RTVSPropertyOp16
 70
     1
102
RTVSPropertyOp17
 70
     1
102
RTVSPropertyOp18
 70
     1
102
RTVSPropertyOp19
 70
     1
102
RTVSPropertyOp20
 70
     1
102
RTVSPropertyOp21
 70
     1
102
RTVSPropertyOp22
 70
     1
102
RTVSPropertyOp23
 70
     1
102
RTVSPropertyOp24
 70
     1
102
RTVSPropertyOp25
 70
     1
102
RTVSPropertyOp26
 70
     1
102
RTVSPropertyOp27
 70
     1
102
RTVSPropertyOp28
 70
     1
102
RTVSPropertyOp29
 70
     1
102
RTVSPropertyOp30
 70
     1
102
RTVSPropertyOp31
 70
     1
102
RTVSPropertyOp32
 70
     1
  0
XRECORD
  5
6AD3
102
{ACAD_REACTORS
330
6AD2
102
}
330
6AD2
100
AcDbXrecord
280
     1
102
RTVSPropertyOp0
 70
     0
102
RTVSPropertyOp1
 70
     0
102
RTVSPropertyOp2
 70
     0
102
RTVSPropertyOp3
 70
     0
102
RTVSPropertyOp4
 70
     0
102
RTVSPropertyOp5
 70
     0
102
RTVSPropertyOp6
 70
     0
102
RTVSPropertyOp7
 70
     0
102
RTVSPropertyOp8
 70
     0
102
RTVSPropertyOp9
 70
     0
102
RTVSPropertyOp10
 70
     0
102
RTVSPropertyOp11
 70
     0
102
RTVSPropertyOp12
 70
     0
102
RTVSPropertyOp13
 70
     0
102
RTVSPropertyOp14
 70
     2
102
RTVSPropertyOp15
 70
     0
102
RTVSPropertyOp16
 70
     0
102
RTVSPropertyOp17
 70
     0
102
RTVSPropertyOp18
 70
     0
102
RTVSPropertyOp19
 70
     0
102
RTVSPropertyOp20
 70
     0
102
RTVSPropertyOp21
 70
     0
102
RTVSPropertyOp22
 70
     0
102
RTVSPropertyOp23
 70
     0
102
RTVSPropertyOp24
 70
     0
102
RTVSPropertyOp25
 70
     0
102
RTVSPropertyOp26
 70
     0
102
RTVSPropertyOp27
 70
     0
102
RTVSPropertyOp28
 70
     1
102
RTVSPropertyOp29
 70
     1
102
RTVSPropertyOp30
 70
     1
102
RTVSPropertyOp31
 70
     1
102
RTVSPropertyOp32
 70
     1
  0
XRECORD
  5
6AC3
102
{ACAD_REACTORS
330
6AC2
102
}
330
6AC2
100
AcDbXrecord
280
     1
102
RTVSPropertyOp0
 70
     1
102
RTVSPropertyOp1
 70
     1
102
RTVSPropertyOp2
 70
     1
102
RTVSPropertyOp3
 70
     1
102
RTVSPropertyOp4
 70
     1
102
RTVSPropertyOp5
 70
     1
102
RTVSPropertyOp6
 70
     1
102
RTVSPropertyOp7
 70
     1
102
RTVSPropertyOp8
 70
     1
102
RTVSPropertyOp9
 70
     1
102
RTVSPropertyOp10
 70
     1
102
RTVSPropertyOp11
 70
     1
102
RTVSPropertyOp12
 70
     1
102
RTVSPropertyOp13
 70
     1
102
RTVSPropertyOp14
 70
     1
102
RTVSPropertyOp15
 70
     1
102
RTVSPropertyOp16
 70
     1
102
RTVSPropertyOp17
 70
     1
102
RTVSPropertyOp18
 70
     1
102
RTVSPropertyOp19
 70
     1
102
RTVSPropertyOp20
 70
     1
102
RTVSPropertyOp21
 70
     1
102
RTVSPropertyOp22
 70
     1
102
RTVSPropertyOp23
 70
     1
102
RTVSPropertyOp24
 70
     1
102
RTVSPropertyOp25
 70
     1
102
RTVSPropertyOp26
 70
     1
102
RTVSPropertyOp27
 70
     1
102
RTVSPropertyOp28
 70
     1
102
RTVSPropertyOp29
 70
     1
102
RTVSPropertyOp30
 70
     1
102
RTVSPropertyOp31
 70
     1
102
RTVSPropertyOp32
 70
     1
  0
XRECORD
  5
6AD5
102
{ACAD_REACTORS
330
6AD4
102
}
330
6AD4
100
AcDbXrecord
280
     1
102
RTVSPropertyOp0
 70
     0
102
RTVSPropertyOp1
 70
     0
102
RTVSPropertyOp2
 70
     0
102
RTVSPropertyOp3
 70
     0
102
RTVSPropertyOp4
 70
     0
102
RTVSPropertyOp5
 70
     0
102
RTVSPropertyOp6
 70
     0
102
RTVSPropertyOp7
 70
     0
102
RTVSPropertyOp8
 70
     0
102
RTVSPropertyOp9
 70
     0
102
RTVSPropertyOp10
 70
     0
102
RTVSPropertyOp11
 70
     0
102
RTVSPropertyOp12
 70
     0
102
RTVSPropertyOp13
 70
     0
102
RTVSPropertyOp14
 70
     2
102
RTVSPropertyOp15
 70
     0
102
RTVSPropertyOp16
 70
     0
102
RTVSPropertyOp17
 70
     0
102
RTVSPropertyOp18
 70
     0
102
RTVSPropertyOp19
 70
     0
102
RTVSPropertyOp20
 70
     0
102
RTVSPropertyOp21
 70
     0
102
RTVSPropertyOp22
 70
     0
102
RTVSPropertyOp23
 70
     0
102
RTVSPropertyOp24
 70
     0
102
RTVSPropertyOp25
 70
     0
102
RTVSPropertyOp26
 70
     0
102
RTVSPropertyOp27
 70
     0
102
RTVSPropertyOp28
 70
     1
102
RTVSPropertyOp29
 70
     1
102
RTVSPropertyOp30
 70
     1
102
RTVSPropertyOp31
 70
     1
102
RTVSPropertyOp32
 70
     1
  0
XRECORD
  5
6ABB
102
{ACAD_REACTORS
330
6ABA
102
}
330
6ABA
100
AcDbXrecord
280
     1
102
RTVSPropertyOp0
 70
     1
102
RTVSPropertyOp1
 70
     1
102
RTVSPropertyOp2
 70
     1
102
RTVSPropertyOp3
 70
     1
102
RTVSPropertyOp4
 70
     1
102
RTVSPropertyOp5
 70
     1
102
RTVSPropertyOp6
 70
     1
102
RTVSPropertyOp7
 70
     1
102
RTVSPropertyOp8
 70
     1
102
RTVSPropertyOp9
 70
     1
102
RTVSPropertyOp10
 70
     1
102
RTVSPropertyOp11
 70
     1
102
RTVSPropertyOp12
 70
     1
102
RTVSPropertyOp13
 70
     1
102
RTVSPropertyOp14
 70
     1
102
RTVSPropertyOp15
 70
     1
102
RTVSPropertyOp16
 70
     1
102
RTVSPropertyOp17
 70
     1
102
RTVSPropertyOp18
 70
     1
102
RTVSPropertyOp19
 70
     1
102
RTVSPropertyOp20
 70
     1
102
RTVSPropertyOp21
 70
     1
102
RTVSPropertyOp22
 70
     1
102
RTVSPropertyOp23
 70
     1
102
RTVSPropertyOp24
 70
     1
102
RTVSPropertyOp25
 70
     1
102
RTVSPropertyOp26
 70
     1
102
RTVSPropertyOp27
 70
     1
102
RTVSPropertyOp28
 70
     1
102
RTVSPropertyOp29
 70
     1
102
RTVSPropertyOp30
 70
     1
102
RTVSPropertyOp31
 70
     1
102
RTVSPropertyOp32
 70
     1
  0
XRECORD
  5
6AD1
102
{ACAD_REACTORS
330
6AD0
102
}
330
6AD0
100
AcDbXrecord
280
     1
102
RTVSPropertyOp0
 70
     1
102
RTVSPropertyOp1
 70
     1
102
RTVSPropertyOp2
 70
     1
102
RTVSPropertyOp3
 70
     1
102
RTVSPropertyOp4
 70
     1
102
RTVSPropertyOp5
 70
     1
102
RTVSPropertyOp6
 70
     1
102
RTVSPropertyOp7
 70
     1
102
RTVSPropertyOp8
 70
     1
102
RTVSPropertyOp9
 70
     1
102
RTVSPropertyOp10
 70
     1
102
RTVSPropertyOp11
 70
     1
102
RTVSPropertyOp12
 70
     1
102
RTVSPropertyOp13
 70
     1
102
RTVSPropertyOp14
 70
     1
102
RTVSPropertyOp15
 70
     1
102
RTVSPropertyOp16
 70
     1
102
RTVSPropertyOp17
 70
     1
102
RTVSPropertyOp18
 70
     1
102
RTVSPropertyOp19
 70
     1
102
RTVSPropertyOp20
 70
     1
102
RTVSPropertyOp21
 70
     1
102
RTVSPropertyOp22
 70
     1
102
RTVSPropertyOp23
 70
     1
102
RTVSPropertyOp24
 70
     1
102
RTVSPropertyOp25
 70
     1
102
RTVSPropertyOp26
 70
     1
102
RTVSPropertyOp27
 70
     1
102
RTVSPropertyOp28
 70
     1
102
RTVSPropertyOp29
 70
     1
102
RTVSPropertyOp30
 70
     1
102
RTVSPropertyOp31
 70
     1
102
RTVSPropertyOp32
 70
     1
  0
XRECORD
  5
6ACF
102
{ACAD_REACTORS
330
6ACE
102
}
330
6ACE
100
AcDbXrecord
280
     1
102
RTVSPropertyOp0
 70
     1
102
RTVSPropertyOp1
 70
     1
102
RTVSPropertyOp2
 70
     1
102
RTVSPropertyOp3
 70
     1
102
RTVSPropertyOp4
 70
     1
102
RTVSPropertyOp5
 70
     1
102
RTVSPropertyOp6
 70
     1
102
RTVSPropertyOp7
 70
     1
102
RTVSPropertyOp8
 70
     1
102
RTVSPropertyOp9
 70
     1
102
RTVSPropertyOp10
 70
     1
102
RTVSPropertyOp11
 70
     1
102
RTVSPropertyOp12
 70
     1
102
RTVSPropertyOp13
 70
     1
102
RTVSPropertyOp14
 70
     1
102
RTVSPropertyOp15
 70
     1
102
RTVSPropertyOp16
 70
     1
102
RTVSPropertyOp17
 70
     1
102
RTVSPropertyOp18
 70
     1
102
RTVSPropertyOp19
 70
     1
102
RTVSPropertyOp20
 70
     1
102
RTVSPropertyOp21
 70
     1
102
RTVSPropertyOp22
 70
     1
102
RTVSPropertyOp23
 70
     1
102
RTVSPropertyOp24
 70
     1
102
RTVSPropertyOp25
 70
     1
102
RTVSPropertyOp26
 70
     1
102
RTVSPropertyOp27
 70
     1
102
RTVSPropertyOp28
 70
     1
102
RTVSPropertyOp29
 70
     1
102
RTVSPropertyOp30
 70
     1
102
RTVSPropertyOp31
 70
     1
102
RTVSPropertyOp32
 70
     1
  0
XRECORD
  5
6AC9
102
{ACAD_REACTORS
330
6AC8
102
}
330
6AC8
100
AcDbXrecord
280
     1
102
RTVSPropertyOp0
 70
     1
102
RTVSPropertyOp1
 70
     1
102
RTVSPropertyOp2
 70
     1
102
RTVSPropertyOp3
 70
     1
102
RTVSPropertyOp4
 70
     1
102
RTVSPropertyOp5
 70
     1
102
RTVSPropertyOp6
 70
     1
102
RTVSPropertyOp7
 70
     1
102
RTVSPropertyOp8
 70
     1
102
RTVSPropertyOp9
 70
     1
102
RTVSPropertyOp10
 70
     1
102
RTVSPropertyOp11
 70
     1
102
RTVSPropertyOp12
 70
     1
102
RTVSPropertyOp13
 70
     1
102
RTVSPropertyOp14
 70
     1
102
RTVSPropertyOp15
 70
     1
102
RTVSPropertyOp16
 70
     1
102
RTVSPropertyOp17
 70
     1
102
RTVSPropertyOp18
 70
     1
102
RTVSPropertyOp19
 70
     1
102
RTVSPropertyOp20
 70
     1
102
RTVSPropertyOp21
 70
     1
102
RTVSPropertyOp22
 70
     1
102
RTVSPropertyOp23
 70
     1
102
RTVSPropertyOp24
 70
     1
102
RTVSPropertyOp25
 70
     1
102
RTVSPropertyOp26
 70
     1
102
RTVSPropertyOp27
 70
     1
102
RTVSPropertyOp28
 70
     1
102
RTVSPropertyOp29
 70
     1
102
RTVSPropertyOp30
 70
     1
102
RTVSPropertyOp31
 70
     1
102
RTVSPropertyOp32
 70
     1
  0
XRECORD
  5
6ACB
102
{ACAD_REACTORS
330
6ACA
102
}
330
6ACA
100
AcDbXrecord
280
     1
102
RTVSPropertyOp0
 70
     1
102
RTVSPropertyOp1
 70
     1
102
RTVSPropertyOp2
 70
     1
102
RTVSPropertyOp3
 70
     1
102
RTVSPropertyOp4
 70
     1
102
RTVSPropertyOp5
 70
     1
102
RTVSPropertyOp6
 70
     1
102
RTVSPropertyOp7
 70
     1
102
RTVSPropertyOp8
 70
     1
102
RTVSPropertyOp9
 70
     1
102
RTVSPropertyOp10
 70
     1
102
RTVSPropertyOp11
 70
     1
102
RTVSPropertyOp12
 70
     1
102
RTVSPropertyOp13
 70
     1
102
RTVSPropertyOp14
 70
     1
102
RTVSPropertyOp15
 70
     1
102
RTVSPropertyOp16
 70
     1
102
RTVSPropertyOp17
 70
     1
102
RTVSPropertyOp18
 70
     1
102
RTVSPropertyOp19
 70
     1
102
RTVSPropertyOp20
 70
     1
102
RTVSPropertyOp21
 70
     1
102
RTVSPropertyOp22
 70
     1
102
RTVSPropertyOp23
 70
     1
102
RTVSPropertyOp24
 70
     1
102
RTVSPropertyOp25
 70
     1
102
RTVSPropertyOp26
 70
     1
102
RTVSPropertyOp27
 70
     1
102
RTVSPropertyOp28
 70
     1
102
RTVSPropertyOp29
 70
     1
102
RTVSPropertyOp30
 70
     1
102
RTVSPropertyOp31
 70
     1
102
RTVSPropertyOp32
 70
     1
  0
XRECORD
  5
6AC1
102
{ACAD_REACTORS
330
6AC0
102
}
330
6AC0
100
AcDbXrecord
280
     1
102
RTVSPropertyOp0
 70
     1
102
RTVSPropertyOp1
 70
     1
102
RTVSPropertyOp2
 70
     1
102
RTVSPropertyOp3
 70
     1
102
RTVSPropertyOp4
 70
     1
102
RTVSPropertyOp5
 70
     1
102
RTVSPropertyOp6
 70
     1
102
RTVSPropertyOp7
 70
     1
102
RTVSPropertyOp8
 70
     1
102
RTVSPropertyOp9
 70
     1
102
RTVSPropertyOp10
 70
     1
102
RTVSPropertyOp11
 70
     1
102
RTVSPropertyOp12
 70
     1
102
RTVSPropertyOp13
 70
     1
102
RTVSPropertyOp14
 70
     1
102
RTVSPropertyOp15
 70
     1
102
RTVSPropertyOp16
 70
     1
102
RTVSPropertyOp17
 70
     1
102
RTVSPropertyOp18
 70
     1
102
RTVSPropertyOp19
 70
     1
102
RTVSPropertyOp20
 70
     1
102
RTVSPropertyOp21
 70
     1
102
RTVSPropertyOp22
 70
     1
102
RTVSPropertyOp23
 70
     1
102
RTVSPropertyOp24
 70
     1
102
RTVSPropertyOp25
 70
     1
102
RTVSPropertyOp26
 70
     1
102
RTVSPropertyOp27
 70
     1
102
RTVSPropertyOp28
 70
     1
102
RTVSPropertyOp29
 70
     1
102
RTVSPropertyOp30
 70
     1
102
RTVSPropertyOp31
 70
     1
102
RTVSPropertyOp32
 70
     1
  0
XRECORD
  5
6AB5
102
{ACAD_REACTORS
330
6AB4
102
}
330
6AB4
100
AcDbXrecord
280
     1
102
RTVSPropertyOp0
 70
     1
102
RTVSPropertyOp1
 70
     1
102
RTVSPropertyOp2
 70
     1
102
RTVSPropertyOp3
 70
     1
102
RTVSPropertyOp4
 70
     1
102
RTVSPropertyOp5
 70
     1
102
RTVSPropertyOp6
 70
     1
102
RTVSPropertyOp7
 70
     1
102
RTVSPropertyOp8
 70
     1
102
RTVSPropertyOp9
 70
     1
102
RTVSPropertyOp10
 70
     1
102
RTVSPropertyOp11
 70
     1
102
RTVSPropertyOp12
 70
     1
102
RTVSPropertyOp13
 70
     1
102
RTVSPropertyOp14
 70
     1
102
RTVSPropertyOp15
 70
     1
102
RTVSPropertyOp16
 70
     1
102
RTVSPropertyOp17
 70
     1
102
RTVSPropertyOp18
 70
     1
102
RTVSPropertyOp19
 70
     1
102
RTVSPropertyOp20
 70
     1
102
RTVSPropertyOp21
 70
     1
102
RTVSPropertyOp22
 70
     1
102
RTVSPropertyOp23
 70
     1
102
RTVSPropertyOp24
 70
     1
102
RTVSPropertyOp25
 70
     1
102
RTVSPropertyOp26
 70
     1
102
RTVSPropertyOp27
 70
     1
102
RTVSPropertyOp28
 70
     1
102
RTVSPropertyOp29
 70
     1
102
RTVSPropertyOp30
 70
     1
102
RTVSPropertyOp31
 70
     1
102
RTVSPropertyOp32
 70
     1
  0
XRECORD
  5
6ACD
102
{ACAD_REACTORS
330
6ACC
102
}
330
6ACC
100
AcDbXrecord
280
     1
102
RTVSPropertyOp0
 70
     1
102
RTVSPropertyOp1
 70
     1
102
RTVSPropertyOp2
 70
     1
102
RTVSPropertyOp3
 70
     1
102
RTVSPropertyOp4
 70
     1
102
RTVSPropertyOp5
 70
     1
102
RTVSPropertyOp6
 70
     1
102
RTVSPropertyOp7
 70
     1
102
RTVSPropertyOp8
 70
     1
102
RTVSPropertyOp9
 70
     1
102
RTVSPropertyOp10
 70
     1
102
RTVSPropertyOp11
 70
     1
102
RTVSPropertyOp12
 70
     1
102
RTVSPropertyOp13
 70
     1
102
RTVSPropertyOp14
 70
     1
102
RTVSPropertyOp15
 70
     1
102
RTVSPropertyOp16
 70
     1
102
RTVSPropertyOp17
 70
     1
102
RTVSPropertyOp18
 70
     1
102
RTVSPropertyOp19
 70
     1
102
RTVSPropertyOp20
 70
     1
102
RTVSPropertyOp21
 70
     1
102
RTVSPropertyOp22
 70
     1
102
RTVSPropertyOp23
 70
     1
102
RTVSPropertyOp24
 70
     1
102
RTVSPropertyOp25
 70
     1
102
RTVSPropertyOp26
 70
     1
102
RTVSPropertyOp27
 70
     1
102
RTVSPropertyOp28
 70
     1
102
RTVSPropertyOp29
 70
     1
102
RTVSPropertyOp30
 70
     1
102
RTVSPropertyOp31
 70
     1
102
RTVSPropertyOp32
 70
     1
  0
ENDSEC
  0
EOF
